My Chemical Romance - Headfirst For Halos Chords & Tabs

 

Headfirst For Halos Chords & Tabs

My Chemical Romance Chords & Tabs

Version: 2 Type: Tab 0 ratings
1 star 2 stars 3 stars 4 stars 5 stars
comments

Headfirst For Halos Tab

   
The "fun" part of the intro (all the pulloffs) is tabbed dead wrong in the earlier
posting of this song, so I'm going to write it the way I hear it.  Enjoy...

-------------------------------------------------------------------------------
			     Headfirst for Halos - My Chemical Romance
-------------------------------------------------------------------------------
Tabbed by:  Joe
Email:  mechwar98@hotmail.com

Tuning:  Standard (EBGDAe)

Intro:
Repeat each triplet eight times.

e|--------------------------|
B|-10p7---8p7---7p5---8p7---|
G|------7-----9-----7-----7-|
D|--------------------------|  x2
A|--------------------------|
E|--------------------------|
[ Tab from: http://www.guitartabs.cc/tabs/m/my_chemical_romance/headfirst_for_halos_tab_ver_2.html ]
e|---------------------------------------------------------------7-9h10-10---|
B|-------7-------7-------7-7h6-7---7p5h7p5h7p5h7p5-------7h8-8-8-------------|
G|-7-7/9-------9---7-7-9---------9-----------------7-7-9---------------------|
D|---------9-9---------------------------------------------------------------|
A|---------------------------------------------------------------------------|
E|---------------------------------------------------------------------------|

e|-10-10/12-14h15-15~~---------------------|
B|-----------------------------------------|
G|-------------------------------------4/--|
D|-----------------------------------------|
A|-------------------------------------2/--|
E|-----------------------------------------|


| /  slide up
| \  slide down
| h  hammer-on
| p  pull-off
| ~  vibrato
| +  harmonic
| x  Mute note
===============================================================================
Comments