My Chemical Romance - Headfirst For Halos Chords & Tabs

 

Headfirst For Halos Chords & Tabs

My Chemical Romance Chords & Tabs

Version: 1 Type: Bass Tab 0 ratings
1 star 2 stars 3 stars 4 stars 5 stars
comments

Headfirst For Halos Bass Tab

   
-------------------------------------------------------------------------------
			     SONG NAME - Band Name
-------------------------------------------------------------------------------

Tabbed By : Adam Francis
e-mail: shame_you_nerd_rock_rox@hotmail.com

Tuning:E A D G

This is just the main jist of the song, the chorus basically. The rest of the song is 
easy, just listen out.

Verses
[ Tab from: http://www.guitartabs.cc/tabs/m/my_chemical_romance/headfirst_for_halos_btab.html ]
G|---------------------------------------------------------------------------|
D|---------------------------------------------------------------------------|
A|----5-5-5-5---4-4-4-4---2-2-2-2--------------------------------------------|
E|--------------------------------33--22-------------------------------------|

G|---------------------------------------------------------------------------|
D|---------------------------------------------------------------------------|
A|----7-7-7-7---6-6-6-6---5-5-5-5--------------------------------------------|
E|--------------------------------53-53--------------------------------------|

Chorus

G ---------------------------------------------------|
D ---------------------------------------------------|
A --5--5--4--4--2--2--2--2--7--7--5--5--0--0---------|
E ---------------------------------------------------|

Thats All Guys
Cheers, Have Fun!
Comments