My Chemical Romance - Hang Em High Chords & Tabs

 

Hang Em High Chords & Tabs

My Chemical Romance Chords & Tabs

Version: 1 Type: Tab 0 ratings
1 star 2 stars 3 stars 4 stars 5 stars
comments

Hang Em High Tab

Tabbed by Dozzi
Band: My Chemical Romance
Song: Hang 'em High
Tuning : Standard (EADGBE)
Tabbed By: Gaboffen
NOTE: I don't say how many time each part repeats.

Intro:
--6-5------------------------------------------------------------------------|
--5-5-6-6--6-----------------------------------------------------------------|
--7-5-5-5--5-----------------------------------------------------------------|
--0---3-3--7-----------------------------------------------------------------|
-----------------------------------------------------------------------------|
-----------------------------------------------------------------------------|

Pre-Verse:
-----------------------------------------------------------------------------|
-----------------------------------------------------------------------------|
--7777777777777777-----------------------------------------------------------|
--7777777777777777-33333333-88877777-----------------------------------------|
--5555555555555555-33333333-88877777-----------------------------------------|
-------------------11111111-66655555-----------------------------------------|

Verse:
-----------------------------------------------------------------------------|
-----------5555555-----------------------------------------------------------|
-----------8888888-----------------------------------------------------------|
-----------0000000-33333333-77777777-----------------------------------------|
-5-8-7-10----------33333333-77777777-----------------------------------------|
-------------------11111111-55555555-----------------------------------------|

Pre-Chorus
-----------------------------------------------------------------------------|
-----------------------------------------------------------------------------|
-33333333-66666666-77777777---------33322222-12-10-9-7-6-7-6-2---------------|
-33333333-66666666-77777777-3333333-33322222---------------------------------|
-11111111-44444444-55555555-3333333-11100000-10--8-7-5-4-5-4\0---------------|
----------------------------1111111------------------------------------------|

Verse2:
Tremelo
-----------------------------------------------------------------------------|
-----------------------------------------------------------------------------|
-14----------14----------14--------------------------------------------------|
----14-15-12----14-15-12----14-15-12--11-12-14-15----------------------------|
-----------------------------------------------------------------------------|
-----------------------------------------------------------------------------|


-----------------------------------------------------------------------------|
-5555555---------------------------------------------------------------------|
-8888888--14-----------------------------------------------------------------|
-0000000-----14-15-12-11-12-14-15--------------------------------------------|
-----------------------------------------------------------------------------|
-----------------------------------------------------------------------------|
[ Tab from: http://www.guitartabs.cc/tabs/m/my_chemical_romance/hang_em_high_tab.html ]
Pre-Chorus:
-----------------------------------------------------------------------------|
-----------------------------------------------------------------------------|
-33333333-66666666-77777777---------33322222-12-10-9-7-6-7-6-2---------------|
-33333333-66666666-77777777-3333333-33322222---------------------------------|
-11111111-44444444-55555555-3333333-11100000-10--8-7-5-4-5-4\0---------------|
----------------------------1111111------------------------------------------|

Chorus:
-----------------------------------------------------------------------------|
-----------------------------------------------------------------------------|
-----------------------------------------------------------------------------|
-7777-tttt-8888-8888-7777-tttt-1212121212121212------------------------------|
-5555-8888-8888-8888-5555-8888-1010101010101010------------------------------|
-----------6666-6666---------------------------------------------------------|

Interlude:
-10-10-10-12-13-13-13-13-13-13-13-13-13-13-13-13-----------------------------|
-Bend-all-of-these-notes-----------------------------------------------------|
-----------------------------------------------------------------------------|
-----------------------------------------------------------------------------|
-----------------------------------------------------------------------------|
-----------------------------------------------------------------------------|

Bridge:
-----------------------------------------------------------------------------|
-----------------------------------------------------------------------------|
-----------------------------------------------------------------------------|
-----------------------------------------------------------------------------|
--8--7----5-4--0---5--4---5--4-5-7-5-5-4-------------------------------------|
-----------------------------------------------------------------------------|

-----------------------------------------------------------------------------|
-----------------------------------------------------------------------------|
-14-15-17-15-14-10-12--14-15-17-15-14-12-10----------------------------------|
-----------------------------------------------------------------------------|
-12-13-15-13-12--8-10--12-13-15-13-12-10--8----------------------------------|
-----------------------------------------------------------------------------|


Chorus:
-----------------------------------------------------------------------------|
-----------------------------------------------------------------------------|
-----------------------------------------------------------------------------|
-7777-tttt-8888-8888-7777-tttt-1212121212121212------------------------------|
-5555-8888-8888-8888-5555-8888-1010101010101010------------------------------|
-----------6666-6666---------------------------------------------------------|

Second Time through Chorus play this:
x6 or 8
-----------------------------------------------------------------------------|
-----------------------------------------------------------------------------|
-12-10-9---------------------------------------------------------------------|
-----------------------------------------------------------------------------|
-10--8-7---------------------------------------------------------------------|
-----------------------------------------------------------------------------|

The ending is incoherent babble.  Just go nuts.  End on A D G Open.


Did I **** up?  If so tell me man
Comments