My Chemical Romance - Ghost Of You Chords & Tabs

 

Ghost Of You Chords & Tabs

My Chemical Romance Chords & Tabs

Version: 4 Type: Tab 0 ratings
1 star 2 stars 3 stars 4 stars 5 stars
comments

Ghost Of You Tab

   
                                THE GHOST OF YOU
                       As recorded by My Chemical Romance
              (From the 2004 Album THREE CHEERS FOR SWEET REVENGE)

Words and Music by My Chemical Romance
Arranged by My Chemical Romance
Transcribed by Cordarro Collins

Gtr I (E A D G B E) - 'Untitled'
Gtr II (E A D G B E) - 'Untitled'
Gtr III (E A D G B E) - 'Untitled'
Gtr IV (E A D G B E) - 'Untitled'
Gtr V (E A D G B E) - 'Untitled'
Gtr VI (E A D G B E) - 'Untitled'

 Intro
  Q=150
  N.C.(D5/B)    N.C.(A/B)              N.C.(D5/B)      N.C.(A/B)
 4/4
  Gtr I
  E E E E E E E E   E E E E  E E E E    E  E E E E E E E    E  E E E  E E E E
|-----------------|------------------|-------------------|--------------------|
|-3-------3-----2-|------------2-----|--3--------3-----2-|--------------2-----|
|-2-------2-----2-|------------2-----|--2--------2-----2-|--------------2-----|
|-----------------|------------------|-------------------|--------------------|
|---2-2-2---2-2---|-2-2-2-2--2---2-2-|-----2-2-2---2-2---|--2--2-2-2--2---2-2-|
|-----------------|------------------|-------------------|--------------------|
|
| Gtr II
| W                 E E E E  Q   Q     +W                  +E  E E E  Q   Q
|-----------------|------------------|-------------------|--------------------|
|-----------------|------------------|-------------------|--------------------|
|-----------------|-----7---11---7---|-(7)---------------|-(7)---7---11---7---|
|-----------------|---9---9----------|-------------------|-----9---9----------|
|-----------------|------------------|-------------------|--------------------|
|-----------------|------------------|-------------------|--------------------|


  N.C.(D5/E)    N.C.(A/E)                N.C.(D5/F#)     N.C.(A/F#)
  E E E E E E E E    E  E E E  E E E E    E E E E E  E E  E     W
|-----------------|--------------------|--------------------|---------|
|-3-------3-----2-|--------------2-----|--3-------3-------2-|--(2)----|
|-2-------2-----2-|--------------2-----|--2-------2-------2-|--(2)----|
|-----------------|--------------------|--------------------|---------|
|-----------------|--------------------|--------------------|---------|
|---0-0-0---0-0---|--0--0-0-0--0---0-0-|--2-2-2-2----2-2----|---2-----|
|
| E Q   E Q   E E   +E  E E E  Q   Q      H       Q.      E    +W
|-----------------|--------------------|--------------------|---------|
|-----------------|--------------------|-12-------7------10-|-(10)----|
|---7-----7-----7-|-(7)---7---11---7---|--------------------|---------|
|-9-----9-----9---|-----9---9----------|--------------------|---------|
|-----------------|--------------------|--------------------|---------|
|-----------------|--------------------|--------------------|---------|


 Verse
  N.C.(D5/B)       N.C.(A/B)
  E   E  E E E E E E   E E E  E E E E E
|--------------------|------------------|
|-3----------3-----2-|------------2-----|
|-2----------2-----2-|------------2-----|
|--------------------|------------------|
|-----2--2-2---2-2---|-2-2-2--2-2---2-2-|
|--------------------|------------------|
|
| E   q    E q   E E   E E H.
|--------------------|------------------|
|--------------------|------------------|
|-9h(11)---7h9---6h7-|---6--------------|
|--------------------|-----9------------|
|--------------------|------------------|
|--------------------|------------------|


  N.C.(D5/B)     N.C.(A/B)
  E  E E E E E E E   E E E E E E E  E
|------------------|--------------------|
|-3--------3-----2-|-----------2--------|
|-2--------2-----2-|-----------2--------|
|------------------|--------------------|
|----2-2-2---2-2---|-2-2-2-2-2---2--2---|
|------------------|--------------------|
|
| E  q   E q   E E   E E E H       +E
|------------------|--------------------|
|------------------|--------------------|
|-9h11---7h9---6h7-|---7-7s9-------(9)--|
|------------------|--------------------|
|------------------|--------------------|
|------------------|--------------------|


  N.C.(D5/E)           N.C.(A/E)
   E  E  E  E  E  E  E  E    E  E  E  E E E E   E
|-------------------------|------------------------|
|--3-----------3--------2-|---------------2--------|
|--2-----------2--------2-|---------------2--------|
|-------------------------|------------------------|
|-------------------------|------------------------|
|-----0--0--0-----0--0----|--0--0--0--0-0---0---0--|
|
|  E  E  E  E  E  E  E  E    E  E  E  H        +E
|-------------------------|------------------------|
|-------------------------|------------------------|
|-11-------12-------14----|------------------------|
|----12p11----12p11----12p|=11-12-12s14-------(14)-|
|-------------------------|------------------------|
|-------------------------|------------------------|


  N.C.(D5/F#)         N.C.(A/F#)
   E  E  E  E  E E  E  E    W
|------------------------|-------------|
|--3-----------3-------2-|-(2)---------|
|--2-----------2-------2-|-(2)---------|
|------------------------|-------------|
|------------------------|-------------|
|--2--2--2--2----2--2----|--2----------|
|
|  E  E  E  E  Q    E  E    E   H..
|------------------------|-------------|
|------------------------|-------------|
|-11---------------------|-------------|
|----12p11-12p11---14-14s|=12--11------|
|------------------------|-------------|
|------------------------|-------------|


  N.C.(D5/B)      N.C.(A/B)
  E  E E E  E E E  E     E  E E  E E  E  E E
|--------------------|-----------------------|
|-3---------3------2-|----------------2------|
|-2---------2------2-|----------------2------|
|--------------------|-----------------------|
|----2-2-2----2-2----|---2--2-2--2-2-----2-2-|
|--------------------|-----------------------|
|
| E  Q   E  Q   E  E    +E  E Q.      Q.
|--------------------|-----------------------|
|--------------------|-----------------------|
|---11-----12-----11-|-(11)---9------11------|
|-9------9------9----|------9----------------|
|--------------------|-----------------------|
|--------------------|-----------------------|


  N.C.(D5/B)      N.C.(A/B)
  E  E E E  E E E  E     E  E E  E E  E  E E
|--------------------|------------------------|
|-3---------3------2-|----------------2-------|
|-2---------2------2-|----------------2-------|
|--------------------|------------------------|
|----2-2-2----2-2----|---2--2-2--2-2-----2-2--|
|--------------------|------------------------|
|
| E  Q   E  Q   E  E    +E  E Q.      Q.
|--------------------|------------------------|
|--------------------|------------------------|
|---11-----12-----11-|-(11)---9------11-------|
|-9------9------9----|------9-----------------|
|--------------------|------------------------|
|--------------------|------------------------|


  N.C.(D5/E)        N.C.(A/E)
    E E E E  E E  E  E     E  E E E E E E E
|----------------------|--------------------|
|---3--------3-------2-|--------------2-----|
|---2--------2-------2-|--------------2-----|
|----------------------|--------------------|
|----------------------|--------------------|
|-----0-0-0----0--0----|---0--0-0-0-0---0-0-|
|
|   H        Q    E  E    +W
|----------------------|--------------------|
|----------------------|--------------------|
|-/14-------12---11----|--------------------|
|-------------------12-|-(12)---------------|
|----------------------|--------------------|
|----------------------|--------------------|
|
| Gtr III
|   W                      W
|----------------------|--------------------|
|----------------------|--------------------|
|----------------------|--------------------|
|----------------------|--------------------|
|----------------------|--------------------|
|----------------------|--------------------|


  N.C.(D5/F#)          N.C.(A/F#)
    E E  E  E  E  E  E  E    E  E  E  E  E  E  E  E
|-------------------------|--------------------------|
|---3----------3--------2-|-----------------2--------|
|---2----------2--------2-|-----------------2--------|
|-------------------------|--------------------------|
|-------------------------|--------------------------|
|---2-2--2--2-----2--2----|--2--2--2--2--2-----2--2--|
|
|   Q    E  E  E  E  E  E    W
|-------------------------|--------------------------|
|-------------------------|--------------------------|
|-/14---12p11-12p11-------|--------------------------|
|-------------------12-12s|=14-----------------------|
|-------------------------|--------------------------|
|-------------------------|--------------------------|
|
|                            TP TP TP TP TP TP TP
|   W                        E  E  E  E  E  E  E  E
|-------------------------|--------------------------|
|-------------------------|--------------------------|
|-------------------------|--------------------------|
|-------------------------|--------------------------|
|-------------------------|--x\-x\-x\-x\-x\-x\-x\-x--|
|-------------------------|--x\-x\-x\-x\-x\-x\-x\-x--|


 Chorus
  Dmaj7sus4/G               G5
  Gtr IV
   E  E  E  E  E  E  E  E    E  E  E  E  E  E  E  E
|-------------------------|-------------------------|
|-------------------------|-------------------------|
|-12-12-12-12-12-12-12-12-|-14-14-14-14-16-16-16-16-|
|--x--x--x--x--x--x--x--x-|--x--x--x--x--x--x--x--x-|
|-10-10-10-10-10-10-10-10-|-12-12-12-12-14-14-14-14-|
|-------------------------|-------------------------|
|
| Gtr V
|  E  E  E  E  E  E  E  E    E  E  E  E  E  E  E  E
|-------------------------|-------------------------|
|-------------------------|-------------------------|
|--6--6--6--6--6--6--6--6-|--7--7--7--7--7--7--7--7-|
|--5--5--5--5--5--5--5--5-|--5--5--5--5--5--5--5--5-|
|--5--5--5--5--5--5--5--5-|--5--5--5--5--5--5--5--5-|
|--3--3--3--3--3--3--3--3-|--3--3--3--3--3--3--3--3-|


  C#m7/E                    Bmadd11/E
   E  E  E  E  E  E  E  E    +E   E  E  E  E  E  E  E
|-------------------------|----------------------------|
|-------------------------|----------------------------|
|-12-12-12-12-12-14-12-11-|-(11)-11-11-11-11-11-11-11--|
|--x--x--x--x--x--x--x--x-|--(x)--x--x--x--x--x--x--x--|
|-10-10-10-10-10-12-10--9-|--(9)--9--9--9--9--9--9--9--|
|-------------------------|----------------------------|
|
|  E  E  E  E  E  E  E  E     E   E  E  E  E  E  E  E
|-------------------------|----------------------------|
|--2--2--2--2--2--2--2--2-|---3---3--3--3--3--3--3--3--|
|--x--x--x--x--x--x--x--x-|---x---x--x--x--x--x--x--x--|
|--2--2--2--2--2--2--2--2-|---2---2--2--2--2--2--2--2--|
|--2--2--2--2--2--2--2--2-|---2---2--2--2--2--2--2--2--|
|--0--0--0--0--0--0--0--0-|---0---0--0--0--0--0--0--0--|


  F#5/B                     D/B            D5
   E  E  E  E  Q     E  E    E  E  H.
|-------------------------|---------------------|
|-------------------------|---------------------|
|-11-12-11--9-11----11-12-|-11--9-11------------|
|--x--x--x--x--x-----x--x-|--x--x--x------------|
|--9-10--9--7--9-----9-10-|--9--7--9------------|
|-------------------------|---------------------|
|
|  E  E  E  E  E  E  E  E    E  E  E   E E Q.
|-------------------------|---------------------|
|-------------------------|---------------------|
|-------------------------|----------------7\---|
|-11-11-11-11-11-11-11-11-|-12-12-12--12-x-7\---|
|--9--9--9--9--9--9--9--9-|--9--9--9---9-x-5\---|
|--7--7--7--7--7--7--7--7-|--7--7--7---7-x------|


  A                       Dsus2/A    B5
   E  E  E E  Q    E  E    E H       Q.
|-----------------------|------------------|
|-----------------------|------------------|
|-11-12-11-9-11---11-12-|-11-9-------9\----|
|--x--x--x-x--x----x--x-|--x-x-------x\----|
|--9-10--9-7--9----9-10-|--9-7-------7\----|
|-----------------------|------------------|
|
|  E  E  E E  E E  E  E    E E E E E Q.
|-----------------------|------------------|
|-----------------------|------------------|
|--6--6--6-6--6-6--6--6-|--7-7-7-7-x-------|
|--7--7--7-7--7-7--7--7-|--7-7-7-7-x-9\----|
|--7--7--7-7--7-7--7--7-|--7-7-7-7-x-9\----|
|--5--5--5-5--5-5--5--5-|--5-5-5-5-x-7\----|


  Dmaj7sus4/G       G5                C#m7/E            Bmadd11/E
                                                                    PM--|
  E E E E E E E E   E E E E E E E E   E E E E E E E E    E  E  E  E E E E  E
|-----------------|-----------------|-----------------|------------------------|
|-----------------|-----------------|-----------------|------------------------|
|-6-6-6-6-6-6-6-6-|-7-7-7-7-7-7-7-7-|-9-9-9-9-9-9-9-9-|-11-11-11-11-------11\--|
|-x-x-x-x-x-x-x-x-|-x-x-x-x-x-x-x-x-|-x-x-x-x-x-x-x-x-|--x--x--x--x--------x\--|
|-4-4-4-4-4-4-4-4-|-5-5-5-5-5-5-5-5-|-7-7-7-7-7-7-7-7-|--9--9--9--9-9-9-9--9\--|
|-----------------|-----------------|-----------------|------------------------|
|
|                                                                   PM----|
| E E E E E E E E   E E E E E E E E   E E E E E E E E    E  E  E  E E E E  E
|-----------------|-----------------|-----------------|------------------------|
|-----------------|-----------------|-2-2-2-2-2-2-2-2-|--3--3--3--3------------|
|-6-6-6-6-6-6-6-6-|-7-7-7-7-7-7-7-7-|-x-x-x-x-x-x-x-x-|--x--x--x--x------------|
|-5-5-5-5-5-5-5-5-|-5-5-5-5-5-5-5-5-|-2-2-2-2-2-2-2-2-|--2--2--2--2------------|
|-5-5-5-5-5-5-5-5-|-5-5-5-5-5-5-5-5-|-2-2-2-2-2-2-2-2-|--2--2--2--2-2-2-2--2---|
|-3-3-3-3-3-3-3-3-|-3-3-3-3-3-3-3-3-|-0-0-0-0-0-0-0-0-|--0--0--0--0-0-0-0--0---|


 Verse
       N.C.(DN.C.(A/B)         F#m/A
  Gtr I
  H    E E E E   E E  E  E  E  E  E  E
|--------------|---2-(2)-2-(2)-2-(2)-2-|
|------3-----2-|---------------2-------|
|------2-----2-|---------------2-------|
|--------------|-----------------------|
|--------2-2---|-2-2--2--2--2-----2--2-|
|--------------|-----------------------|
|
| Gtr II
| W              W
|--------------|-----------------------|
|--------------|-----------------------|
|--------------|-----------------------|
|--------------|-----------------------|
|--------------|-----------------------|
|--------------|-----------------------|


  N.C.(D5/B)    N.C.(A/B)             F#m/A
  E E E E E E E  E     E  E  E  E  E  E  E  E
|------------------|------2-(2)-2-(2)-2-(2)-2--|
|-3-------3------2-|------------------2--------|
|-2-------2------2-|------------------2--------|
|------------------|---------------------------|
|---2-2-2---2-2----|---2--2--2--2--2-----2--2--|
|------------------|---------------------------|
|
| E Q   E Q   E  E    +W
|------------------|---------------------------|
|------------------|---------------------------|
|---7-----7-----11-|-(11)----------------------|
|-9-----9-----9----|---------------------------|
|------------------|---------------------------|
|------------------|---------------------------|


  N.C.(D5/E)      N.C.(A/E)                 N.C.(D5/F#)    N.C.(A/F#)
   E E E E E  E E E    E  E   E E E E E E    E E E E E E E E    W
|-------------------|---------------------|------------------|--------|
|--3-------3------2-|---------------2-----|--3-------3-----2-|-(2)----|
|--2-------2------2-|---------------2-----|--2-------2-----2-|-(2)----|
|-------------------|---------------------|------------------|--------|
|-------------------|---------------------|------------------|--------|
|----0-0-0----0-0---|--0--0---0-0-0---0-0-|--2-2-2-2---2-2---|--2-----|
|
|  H       Q.     E   +E  H..                Q   E E E E E E   +W
|-------------------|---------------------|------------------|--------|
|-------------------|---------------------|------------------|--------|
|-/9-------7------6-|-(6)-4---------------|-/9---7-6-7-6-4---|--------|
|-------------------|---------------------|----------------7-|-(7)----|
|-------------------|---------------------|------------------|--------|
|-------------------|---------------------|------------------|--------|


  N.C.(D5/B)       N.C.(A/B)         F#m/A
  E   E  E E E E E E   E E  E  E  E  E  E  E
|--------------------|---2-(2)-2-(2)-2-(2)-2-|
|-3----------3-----2-|---------------2-------|
|-2----------2-----2-|---------------2-------|
|--------------------|-----------------------|
|-----2--2-2---2-2---|-2-2--2--2--2-----2--2-|
|--------------------|-----------------------|
|
| E   q    E q   E E   E E  H.
|--------------------|-----------------------|
|--------------------|-----------------------|
|-9h(11)---7h9---6h7-|---6-------------------|
|--------------------|------9----------------|
|--------------------|-----------------------|
|--------------------|-----------------------|


  N.C.(D5/B)     N.C.(A/B)        F#m/A
  E  E E E E E E E   E E  E E  E  E  E   E
|------------------|---2-(2)2-(2)-2-(2)--2---|
|-3--------3-----2-|--------------2----------|
|-2--------2-----2-|--------------2----------|
|------------------|-------------------------|
|----2-2-2---2-2---|-2-2--2-2--2-----2---2---|
|------------------|-------------------------|
|
| E  q   E q   E E   E E  E H           +E
|------------------|-------------------------|
|------------------|-------------------------|
|-9h11---7h9---6h7-|---7--7s9-----------(9)--|
|------------------|-------------------------|
|------------------|-------------------------|
|------------------|-------------------------|


  N.C.(D5/E)           N.C.(A/E)
   E  E  E  E  E  E  E  E    E  E  E  E E E E   E
|-------------------------|------------------------|
|--3-----------3--------2-|---------------2--------|
|--2-----------2--------2-|---------------2--------|
|-------------------------|------------------------|
|-------------------------|------------------------|
|-----0--0--0-----0--0----|--0--0--0--0-0---0---0--|
|
|  E  E  E  E  E  E  E  E    E  E  E  H        +E
|-------------------------|------------------------|
|-------------------------|------------------------|
|-11-------12-------14----|------------------------|
|----12p11----12p11----12p|=11-12-12s14-------(14)-|
|-------------------------|------------------------|
|-------------------------|------------------------|
|
| Gtr III
|  W                         W
|-------------------------|------------------------|
|-------------------------|------------------------|
|-------------------------|------------------------|
|-------------------------|------------------------|
|-------------------------|------------------------|
|-------------------------|------------------------|

[ Tab from: http://www.guitartabs.cc/tabs/m/my_chemical_romance/ghost_of_you_tab_ver_4.html ]
  N.C.(D5/F#)        N.C.(A/F#)
   E  E E  E  E E  E  E     W
|-----------------------|-----------------------------|
|--3----------3-------2-|--(2)------------------------|
|--2----------2-------2-|--(2)------------------------|
|-----------------------|-----------------------------|
|-----------------------|-----------------------------|
|--2--2-2--2----2--2----|---2-------------------------|
|
|  E  Q    E  Q    E  E    +E   H..
|-----------------------|-----------------------------|
|-----------------------|-----------------------------|
|-11--------------------|-----------------------------|
|----12---11-12---14-12-|-(12)-11---------------------|
|-----------------------|-----------------------------|
|-----------------------|-----------------------------|
|
|                           TP  TP  TP TP TP TP TP
|  W                        E   E   E  E  E  E  E  E
|-----------------------|-----------------------------|
|-----------------------|-----------------------------|
|-----------------------|-----------------------------|
|-----------------------|-----------------------------|
|-----------------------|---x\--x\--x\-x\-x\-x\-x\-x--|
|-----------------------|---x\--x\--x\-x\-x\-x\-x\-x--|


 Chorus
  Dmaj7sus4/G               G5
  Gtr IV
   E  E  E  E  E  E  E  E    E  E  E  E  E  E  E  E
|-------------------------|-------------------------|
|-------------------------|-------------------------|
|-12-12-12-12-12-12-12-12-|-14-14-14-14-16-16-16-16-|
|--x--x--x--x--x--x--x--x-|--x--x--x--x--x--x--x--x-|
|-10-10-10-10-10-10-10-10-|-12-12-12-12-14-14-14-14-|
|-------------------------|-------------------------|
|
| Gtr V
|  E  E  E  E  E  E  E  E    E  E  E  E  E  E  E  E
|-------------------------|-------------------------|
|-------------------------|-------------------------|
|--6--6--6--6--6--6--6--6-|--7--7--7--7--7--7--7--7-|
|--5--5--5--5--5--5--5--5-|--5--5--5--5--5--5--5--5-|
|--5--5--5--5--5--5--5--5-|--5--5--5--5--5--5--5--5-|
|--3--3--3--3--3--3--3--3-|--3--3--3--3--3--3--3--3-|


  C#m7/E                    Bmadd11/E
   E  E  E  E  E  E  E  E    +E   E  E  E  E  E  E  E
|-------------------------|----------------------------|
|-------------------------|----------------------------|
|-12-12-12-12-12-14-12-11-|-(11)-11-11-11-11-11-11-11--|
|--x--x--x--x--x--x--x--x-|--(x)--x--x--x--x--x--x--x--|
|-10-10-10-10-10-12-10--9-|--(9)--9--9--9--9--9--9--9--|
|-------------------------|----------------------------|
|
|  E  E  E  E  E  E  E  E     E   E  E  E  E  E  E  E
|-------------------------|----------------------------|
|--2--2--2--2--2--2--2--2-|---3---3--3--3--3--3--3--3--|
|--x--x--x--x--x--x--x--x-|---x---x--x--x--x--x--x--x--|
|--2--2--2--2--2--2--2--2-|---2---2--2--2--2--2--2--2--|
|--2--2--2--2--2--2--2--2-|---2---2--2--2--2--2--2--2--|
|--0--0--0--0--0--0--0--0-|---0---0--0--0--0--0--0--0--|


    F#5/B                                    D5
     E  E  E  E  Q     E  E    E  E  H.
||--------------------------|---------------------|
||o-------------------------|---------------------|
||--11-12-11--9-11----11-12-|-11--9-11------------|
||---x--x--x--x--x-----x--x-|--x--x--x------------|
||o--9-10--9--7--9-----9-10-|--9--7--9------------|
||--------------------------|---------------------|
|
|    E  E  E  E  E  E  E  E    E  E  E   E E Q.
||--------------------------|---------------------|
||o-------------------------|---------------------|
||--------------------------|----------------7\---|
||--11-11-11-11-11-11-11-11-|-12-12-12--12-x-7\---|
||o--9--9--9--9--9--9--9--9-|--9--9--9---9-x-5\---|
||---7--7--7--7--7--7--7--7-|--7--7--7---7-x------|


  A                       Dsus2/A    B5
   E  E  E E  Q    E  E    E H       Q.
|-----------------------|-----------------|
|-----------------------|-----------------|
|-11-12-11-9-11---11-12-|-11-9-------9\---|
|--x--x--x-x--x----x--x-|--x-x-------x\---|
|--9-10--9-7--9----9-10-|--9-7-------7\---|
|-----------------------|-----------------|
|
|  E  E  E E  E E  E  E    E E E E E Q.
|-----------------------|-----------------|
|-----------------------|-----------------|
|--6--6--6-6--6-6--6--6-|--7-7-7-7-x------|
|--7--7--7-7--7-7--7--7-|--7-7-7-7-x-9\---|
|--7--7--7-7--7-7--7--7-|--7-7-7-7-x-9\---|
|--5--5--5-5--5-5--5--5-|--5-5-5-5-x-7\---|


  Dmaj7sus4/G       G5                C#m7/E
  E E E E E E E E   E E E E E E E E   E E E E E E E E
|-----------------|-----------------|-----------------|
|-----------------|-----------------|-----------------|
|-6-6-6-6-6-6-6-6-|-7-7-7-7-7-7-7-7-|-9-9-9-9-9-9-9-9-|
|-x-x-x-x-x-x-x-x-|-x-x-x-x-x-x-x-x-|-x-x-x-x-x-x-x-x-|
|-4-4-4-4-4-4-4-4-|-5-5-5-5-5-5-5-5-|-7-7-7-7-7-7-7-7-|
|-----------------|-----------------|-----------------|
|
| E E E E E E E E   E E E E E E E E   E E E E E E E E
|-----------------|-----------------|-----------------|
|-----------------|-----------------|-2-2-2-2-2-2-2-2-|
|-6-6-6-6-6-6-6-6-|-7-7-7-7-7-7-7-7-|-x-x-x-x-x-x-x-x-|
|-5-5-5-5-5-5-5-5-|-5-5-5-5-5-5-5-5-|-2-2-2-2-2-2-2-2-|
|-5-5-5-5-5-5-5-5-|-5-5-5-5-5-5-5-5-|-2-2-2-2-2-2-2-2-|
|-3-3-3-3-3-3-3-3-|-3-3-3-3-3-3-3-3-|-0-0-0-0-0-0-0-0-|


 1.                           2.
  Bmadd11/E                                E5
                                           PM--|
   E  E  E  E  E  E  E  E       E  E  E  E E E E  E
|---------------------------||-------------------------|
|--------------------------o||-------------------------|
|-11-11-11-11-11-11-11-11\--||-11-11-11-11-------11\---|
|--x--x--x--x--x--x--x--x\--||--x--x--x--x--------x\---|
|--9--9--9--9--9--9--9--9\-o||--9--9--9--9-9-9-9--9\---|
|---------------------------||-------------------------|
|
|                                          PM----|
|  E  E  E  E  E  E  E  E       E  E  E  E E E E  E
|---------------------------||-------------------------|
|--3--3--3--3--3--3--3--3--o||--3--3--3--3-------------|
|--x--x--x--x--x--x--x--x---||--x--x--x--x-------------|
|--2--2--2--2--2--2--2--2---||--2--2--2--2-------------|
|--2--2--2--2--2--2--2--2--o||--2--2--2--2-2-2-2--2----|
|--0--0--0--0--0--0--0--0---||--0--0--0--0-0-0-0--0----|


 Breakdown
  N.C.(Gmaj7/B) N.C.          N.C.(F#5)     N.C.(F#)
  Gtr I
  Q  Q  Q  Q    Q  Q  Q  Q    Q  Q  Q  Q    Q  Q  Q  Q
|-------------|-------------|-------------|--------------|
|-------------|-------------|-------------|--------------|
|-------0-----|-------0-----|-------0-----|-------0------|
|-4-----------|-4-----------|-4-----------|-4------------|
|----2-----2--|-------------|----4-----4--|--------------|
|-------------|----3-----3--|-------------|----2-----2---|


  N.C.(Gmaj7/B)   N.C.            N.C.(F#5)       N.C.
  Gtr I
  Q  Q   Q  Q     Q  Q   Q   Q    Q  Q   Q   Q    W
|---------------|---------------|---------------|------|
|---------------|---------------|---------------|------|
|--------0------|--------0------|--------0------|------|
|-4-------------|-4-------------|-4-------------|-4----|
|----2------2---|---------------|----4-------4--|------|
|---------------|----3-------3--|---------------|------|
|
| Gtr II
| Q  E E Q  E E   Q  E E E E Q    Q  E E E E Q    W
|---------------|---------------|---------------|------|
|---------------|---------------|---------------|------|
|---------------|----0---4-0----|---------------|------|
|----0---4--0---|-2----2-----2--|----0---5-4-0--|-4----|
|-2----2------2-|---------------|-4----4--------|------|
|---------------|---------------|---------------|------|


 Interlude
  B5                G5                  C#5               F#5
  Gtr IV
  E E E E Q   Q     E E E E A Q   Q     E E E E Q   Q      E E Q   E E Q
|---------2-------|---------2s3-------|---------2-------|------------------|
|---3---3-----3---|---3---3-------3---|---3---3-----3---|------------------|
|-4---4-----------|-4---4-------------|-4---4-----------|-/9-7-6---7-6-----|
|-----------------|-------------------|-----------------|--------------7---|
|-----------------|-------------------|-----------------|------------------|
|-----------------|-------------------|-----------------|------------------|
|
| Gtr V
| E E E E E E E E   E E E E   E E E E   E E E E E E E E    E E E E E E E E
|-----------------|-------------------|-----------------|------------------|
|-----------------|-------------------|-----------------|------------------|
|-4-4-4-4-4-4-4-4-|-------------------|-6-6-6-6-6-6-6-6-|------------------|
|-4-4-4-4-4-4-4-4-|-5-5-5-5---5-5-5-5-|-6-6-6-6-6-6-6-6-|--4-4-4-4-4-4-4-4-|
|-2-2-2-2-2-2-2-2-|-5-5-5-5---5-5-5-5-|-4-4-4-4-4-4-4-4-|--4-4-4-4-4-4-4-4-|
|-----------------|-3-3-3-3---3-3-3-3-|-----------------|--2-2-2-2-2-2-2-2-|


  B5                G5                  C#5               F#5
                                                           ~~
  E E E E Q   Q     E E E E A Q   Q     E E E E Q   Q      W
|---------2-------|---------2s3-------|---------2-------|------------------|
|---3---3-----3---|---3---3-------3---|---3---3-----3---|------------------|
|-4---4-----------|-4---4-------------|-4---4-----------|-/9---------------|
|-----------------|-------------------|-----------------|------------------|
|-----------------|-------------------|-----------------|------------------|
|-----------------|-------------------|-----------------|------------------|
|
| E E E E E E E E   E E E E   E E E E   E E E E E E E E    E E E E E E E E
|-----------------|-------------------|-----------------|------------------|
|-----------------|-------------------|-----------------|------------------|
|-4-4-4-4-4-4-4-4-|-------------------|-6-6-6-6-6-6-6-6-|------------------|
|-4-4-4-4-4-4-4-4-|-5-5-5-5---5-5-5-5-|-6-6-6-6-6-6-6-6-|--4-4-4-4-4-4-4-4-|
|-2-2-2-2-2-2-2-2-|-5-5-5-5---5-5-5-5-|-4-4-4-4-4-4-4-4-|--4-4-4-4-4-4-4-4-|
|-----------------|-3-3-3-3---3-3-3-3-|-----------------|--2-2-2-2-2-2-2-2-|


  N.C.(N.CN.C.(N.C.(EN.C.(D)N.C.(C#m)  N.C.(N.C.(A)
  H    Q  Q     H    H      W          H    H
|------------|------------|----------|-----------|
|------------|------------|----------|-----------|
|------------|------------|----------|-----------|
|------------|------------|----------|-----------|
|-2----4--5--|-/7----5----|-4--------|-----------|
|------------|------------|----------|-7----5----|
|
| H    Q  Q     H    H      W          H    H
|------------|------------|----------|-----------|
|------------|------------|----------|-----------|
|------------|------------|----------|-----------|
|-0----2--4--|-/5----4----|-2--------|-----------|
|------------|------------|----------|-5----4----|
|------------|------------|----------|-----------|


  N.C.(N.CN.C.(N.C.(EN.C.(D)N.C.(Bm)   N.C.(Bm)N.C.(A)
                                       PM------------|
  H    Q  Q     H    H      W          E E E E E E E E
|------------|------------|----------|------------------|
|------------|------------|----------|------------------|
|------------|------------|----------|------------------|
|------------|------------|----------|------------------|
|-2----4--5--|-/7----5----|-4--------|------------------|
|------------|------------|----------|-7-7-7-7-5-5-5-5--|
|
|                                      PM------------|
| H    Q  Q     H    H      W          E E E E E E E E
|------------|------------|----------|------------------|
|------------|------------|----------|------------------|
|------------|------------|----------|------------------|
|-0----2--4--|-/5----4----|-2--------|------------------|
|------------|------------|----------|-5-5-5-5-5-5-5-5--|
|------------|------------|----------|------------------|


 Out-Chorus
  Dmaj7sus4/G               G5
   E  E  E  E  E  E  E  E    E  E  E  E  E  E  E  E
|-------------------------|-------------------------|
|-------------------------|-------------------------|
|-12-12-12-12-12-12-12-12-|-14-14-14-14-16-16-16-16-|
|--x--x--x--x--x--x--x--x-|--x--x--x--x--x--x--x--x-|
|-10-10-10-10-10-10-10-10-|-12-12-12-12-14-14-14-14-|
|-------------------------|-------------------------|
|
|  E  E  E  E  E  E  E  E    E  E  E  E  E  E  E  E
|-------------------------|-------------------------|
|-------------------------|-------------------------|
|--6--6--6--6--6--6--6--6-|--7--7--7--7--7--7--7--7-|
|--5--5--5--5--5--5--5--5-|--5--5--5--5--5--5--5--5-|
|--5--5--5--5--5--5--5--5-|--5--5--5--5--5--5--5--5-|
|--3--3--3--3--3--3--3--3-|--3--3--3--3--3--3--3--3-|


  C#m7/E                    Bmadd11/E
   E  E  E  E  E  E  E  E    +E   E  E  E  E  E  E  E
|-------------------------|----------------------------|
|-------------------------|----------------------------|
|-12-12-12-12-12-14-12-11-|-(11)-11-11-11-11-11-11-11--|
|--x--x--x--x--x--x--x--x-|--(x)--x--x--x--x--x--x--x--|
|-10-10-10-10-10-12-10--9-|--(9)--9--9--9--9--9--9--9--|
|-------------------------|----------------------------|
|
|  E  E  E  E  E  E  E  E     E   E  E  E  E  E  E  E
|-------------------------|----------------------------|
|--2--2--2--2--2--2--2--2-|---3---3--3--3--3--3--3--3--|
|--x--x--x--x--x--x--x--x-|---x---x--x--x--x--x--x--x--|
|--2--2--2--2--2--2--2--2-|---2---2--2--2--2--2--2--2--|
|--2--2--2--2--2--2--2--2-|---2---2--2--2--2--2--2--2--|
|--0--0--0--0--0--0--0--0-|---0---0--0--0--0--0--0--0--|


    F#5/B                     D/B            D5
     E  E  E  E  Q     E  E    E  E  H.
||--------------------------|---------------------|
||o-------------------------|---------------------|
||--11-12-11--9-11----11-12-|-11--9-11------------|
||---x--x--x--x--x-----x--x-|--x--x--x------------|
||o--9-10--9--7--9-----9-10-|--9--7--9------------|
||--------------------------|---------------------|
|
|    E  E  E  E  E  E  E  E    E  E  E   E E Q.
||--------------------------|---------------------|
||o-------------------------|---------------------|
||--------------------------|----------------7\---|
||--11-11-11-11-11-11-11-11-|-12-12-12--12-x-7\---|
||o--9--9--9--9--9--9--9--9-|--9--9--9---9-x-5\---|
||---7--7--7--7--7--7--7--7-|--7--7--7---7-x------|
|
|   Gtr VI
|    W                         W
||--------------------------|---------------------|
||o-12----------------------|--8------------------|
||--------------------------|---------------------|
||--------------------------|---------------------|
||o-------------------------|---------------------|
||--------------------------|---------------------|


  A                       Dsus2/A    B5
   E  E  E E  Q    E  E    E H       Q.
|-----------------------|-----------------|
|-----------------------|-----------------|
|-11-12-11-9-11---11-12-|-11-9-------9\---|
|--x--x--x-x--x----x--x-|--x-x-------x\---|
|--9-10--9-7--9----9-10-|--9-7-------7\---|
|-----------------------|-----------------|
|
|  E  E  E E  E E  E  E    E E E E E Q.
|-----------------------|-----------------|
|-----------------------|-----------------|
|--6--6--6-6--6-6--6--6-|--7-7-7-7-x------|
|--7--7--7-7--7-7--7--7-|--7-7-7-7-x-9\---|
|--7--7--7-7--7-7--7--7-|--7-7-7-7-x-9\---|
|--5--5--5-5--5-5--5--5-|--5-5-5-5-x-7\---|
|
|  W                       W
|-----------------------|-----------------|
|-12--------------------|--8--------------|
|-----------------------|-----------------|
|-----------------------|-----------------|
|-----------------------|-----------------|
|-----------------------|-----------------|


  Dmaj7sus4/G        G5                C#m7/E
   E E E E E E E E   E E E E E E E E    E E E E E E E E
|------------------|-----------------|------------------|
|------------------|-----------------|------------------|
|--6-6-6-6-6-6-6-6-|-7-7-7-7-7-7-7-7-|--9-9-9-9-9-9-9-9-|
|--x-x-x-x-x-x-x-x-|-x-x-x-x-x-x-x-x-|--x-x-x-x-x-x-x-x-|
|--4-4-4-4-4-4-4-4-|-5-5-5-5-5-5-5-5-|--7-7-7-7-7-7-7-7-|
|------------------|-----------------|------------------|
|
|  E E E E E E E E   E E E E E E E E    E E E E E E E E
|------------------|-----------------|------------------|
|------------------|-----------------|--2-2-2-2-2-2-2-2-|
|--6-6-6-6-6-6-6-6-|-7-7-7-7-7-7-7-7-|--x-x-x-x-x-x-x-x-|
|--5-5-5-5-5-5-5-5-|-5-5-5-5-5-5-5-5-|--2-2-2-2-2-2-2-2-|
|--5-5-5-5-5-5-5-5-|-5-5-5-5-5-5-5-5-|--2-2-2-2-2-2-2-2-|
|--3-3-3-3-3-3-3-3-|-3-3-3-3-3-3-3-3-|--0-0-0-0-0-0-0-0-|
|
|  W                 W                  W
|------------------|-----------------|------------------|
|-12---------------|-8---------------|-12---------------|
|------------------|-----------------|------------------|
|------------------|-----------------|------------------|
|------------------|-----------------|------------------|
|------------------|-----------------|------------------|


 1.                          2.
  Bmadd11/E                               E5
                                          PM----|
   E  E  E  E  E  E  E  E      E  E  E  E E E E E
|--------------------------||-----------------------|
|-------------------------o||-----------------------|
|-11-11-11-11-11-11-11-11--||-11-11-11-11-----------|
|--x--x--x--x--x--x--x--x--||--x--x--x--x-----------|
|--9--9--9--9--9--9--9--9-o||--9--9--9--9-9-9-9-9---|
|--------------------------||-----------------------|
|
|                                         PM----|
|  E  E  E  E  E  E  E  E      E  E  E  E E E E E
|--------------------------||-----------------------|
|--3--3--3--3--3--3--3--3-o||--3--3--3--3-----------|
|--x--x--x--x--x--x--x--x--||--x--x--x--x-----------|
|--2--2--2--2--2--2--2--2--||--2--2--2--2-----------|
|--2--2--2--2--2--2--2--2-o||--2--2--2--2-2-2-2-2---|
|--0--0--0--0--0--0--0--0--||--0--0--0--0-0-0-0-0---|
|
|                              <
|  W                           W
|--------------------------||-----------------------|
|--8----------------------o||-12--------------------|
|--------------------------||-----------------------|
|--------------------------||-----------------------|
|-------------------------o||-----------------------|
|--------------------------||-----------------------|


  H.=H              Q=100
  N.C.                                        G
  Gtr VI
    H       H         H       H         H       H        +W
|-----------------|-----------------|----------10-----|-(10)----|
|-(12)----(12)----|-(12)----(12)----|-(12)----(12)----|-(12)----|
|--11------12-----|--14------11-----|--12-----(12)----|-(12)----|
|-----------------|-----------------|-----------------|---------|
|-----------------|-----------------|-----------------|---------|
|-----------------|-----------------|-----------------|---------|


  N.C.         F/D
  Q   Q    Q    Q     +W
|-5--(5)--(5)--(5)--|-(5)----*|
|-6---5----6---(6)--|-(6)----*|
|---------------7---|-(7)----*|
|-------------------|--------*|
|-------------------|--------*|
|-------------------|--------*|


Duration Legend
---------------
W - whole; H - half; Q - quarter; E - 8th; S - 16th; T - 32nd; X - 64th; a - acciaccatura
+ - note tied to previous; . - note dotted; .. - note double dotted
Uncapitalized letters represent notes that are staccato (1/2 duration)
Irregular groupings are notated above the duration line
Duration letters will always appear directly above the note/fret number it represents the
duration for.  Duration letters with no fret number below them represent rests.  Multi-
bar rests are notated in the form Wxn, where n is the number of bars to rest for.  Low
melody durations appear below the staff

Tablature Legend
----------------
 h   - hammer-on
 p   - pull-off
 b   - bend
 pb  - pre-bend
 r   - bend release (if no number after the r, then release immediately)
 /\  - slide into or out of (from/to "nowhere")
 s   - legato slide
 S   - shift slide
  - natural harmonic
[n]  - artificial harmonic
n(n) - tapped harmonic
 ~   - vibrato
 tr  - trill
 T   - tap
 TP  - trem. picking
 PM  - palm muting
\n/  - tremolo bar dip; n = amount to dip
 \n  - tremolo bar down
 n/  - tremolo bar up
/n\  - tremolo bar inverted dip
 =   - hold bend; also acts as connecting device for hammers/pulls
 <>  - volume swell (louder/softer)
 x   - on rhythm slash represents muted slash
 o   - on rhythm slash represents single note slash

Misc Legend
-----------
 |  - bar
||  - double bar
||o - repeat start
o|| - repeat end
*|  - double bar (ending)
 :  - bar (freetime)
 $  - Segno
 &  - Coda
Tempo markers -  = BPM(8/16=s8/s16), where s8 = swing 8ths, s16 = swing 16ths
Comments