My Chemical Romance - Ghost Of You Chords & Tabs

 

Ghost Of You Chords & Tabs

My Chemical Romance Chords & Tabs

Version: 3 Type: Tab 0 ratings
1 star 2 stars 3 stars 4 stars 5 stars
comments

Ghost Of You Tab

   
My Chemical Romance - The Ghost of You
From the album "Three Cheers For Sweet Revenge"


      * Altered so many times now, It should be near perfect! *

Please Rate!

Comments/corrections welcome: e-mail/MSN [Mathamology@hotmail.com]

Updated: Mostly just little things, such as one note in the interlude, and 
         one chord in the chorus has been altered a bit

Key:

|:| / - slide
|:| * - harmonic (natural)
|:| h - hammer on
|:| p - pull off
|:| ~ - vibrato
|:| . - palm mute
|:| b - bend

  [1] - Guitar one 
  [2] - Guitar two 


---------------------------------|---------|---------------------------------
---------------------------------|- Intro -|---------------------------------
---------------------------------|---------|---------------------------------


>> Tone

	Guitar [1] - clean, with sustain
	Guitar [2] - clean, with sustain

[1]
e|:|---------------------------|--|
B|:|---------------------------|--|
G|:|-7-----7-----6-----6-------|--|
D|:|-7-----7-----7-----7-------|--|
A|:|---------------------------|x2|
E|:|---7-7---7-7---7-7---7-7-7-|--|
 | |                           |
[2]|                           |
e|:|---------------------------|-----------------------------|
B|:|---------------------7-----|---------------------7-------|
G|:|-----------------7-------7-|-----------------7-------7---|
D|:|---------------9---9---9---|---------------9---9---9---9-|
A|:|---------------------------|-----------------------------|
E|:|---------------------------|-----------------------------|

[1]
e|:|---------------------------|----------|
B|:|---------------------------|----------|
G|:|-7-----7-----6-----6-------|-7-777-6--|
D|:|-7-----7-----7-----7-------|-7-777-7--|
A|:|---------------------------|----------|
E|:|---0-0---0-0---0-0---0-0---|----------|
 | |                           |
[2]|                           |
e|:|---------------------------|----------|
B|:|---------------------7-----|-12*------|
G|:|-7-----7----6----7-------7-|----------|
D|:|--9--9--9-9----9---9---9---|------7*--|
A|:|---------------------------|----------|
E|:|---------------------------|----------|



---------------------------------|---------|---------------------------------
---------------------------------|-Verse 1-|---------------------------------
---------------------------------|---------|---------------------------------



[1]
e|:|-------------------------|--|
B|:|-------------------------|--|
G|:|-7-----7-----6---------6-|--|
D|:|-7-----7-----7---------7-|--|
A|:|-------------------------|x2|
E|:|---7-7---7-7---7-7-7-7---|--|
 | |   . .   . .   . . . .   |
[2]|                         |
e|:|-------------------------|-------------------------|
B|:|-------------------------|-------------------------|
G|:|-9h11--------------------|-9h11--------------------|
D|:|------12h14-11h12-11/9~--|------12h14-11h12-11/14~-|
A|:|-------------------------|-------------------------|
E|:|-------------------------|-------------------------|
    " I never..."              "...said I'd lie in wait..."

[1]
e|:|-----------------------------------|--|        
B|:|-----------------------------------|--|       
G|:|-7-----7-----6----------6----------|--|      
D|:|-7-----7-----7----------7----------|--|      
A|:|-----------------------------------|x2|        
E|:|---0-0---0-0----0-0-0-0------------|--|        
 | |   . .   . .    . . . .            | 
[2]|                                   |
e|:|-----------------------------------|-----------------------|
B|:|-----------------------------------|-----------------------|
G|:|-11-------12-11----14--------------|-11--------------------|
D|:|----14-12-------12----12-11h12-14~-|----12p11-12p11-14-12~-|
A|:|-----------------------------------|-----------------------|
E|:|-----------------------------------|-----------------------|
                                         "...If i died, we'd be together..."

[1]
e|:|-------------------------|--|--------------------------|--|
B|:|-------------------------|--|--------------------------|--|
G|:|-7-----7-----6---------6-|--|-9-----9-----7----------7-|--|
D|:|-7-----7-----7---------7-|--|-7-----7-----7----------7-|--|
A|:|-------------------------|x2|--------------------------|x2|
E|:|---7-7---7-7---7-7-7-7---|--|---0-0---0-0----0-0-0-0---|--|
 | |   . .   . .   . . . .   |  |   . .   . .    . . . .
[2]|                         |  |
e|:|-------------------------|--|------------------------------------------|
B|:|-------------------------|--|------------------------------------------|
G|:|---11----12----11----9~--|--|-/14-12-11-----/14p12-11-11h12p11---------|
D|:|-9-----9-----9-----9-----|x2|-----------12~--------------------12-/14~-|
A|:|-------------------------|--|------------------------------------------|
E|:|-------------------------|--|------------------------------------------|
    "... I can't always..."      "...But she could try..."


<< Tone end



--------------------------------|------------|-------------------------------
--------------------------------|-Pre Chorus-|-------------------------------
--------------------------------|------------|-------------------------------



>> Tone Change

	Guitar [1] - Distortion 
	Guitar [2] - Distortion

[1]
e|:|-----------------|
B|:|-----------------|
G|:|-----------------|
D|:|-4-4-4-4-4-4-4-4-|
A|:|-4-4-4-4-4-4-4-4-|
E|:|-2-2-2-2-2-2-2-2-|
 | | . . . . . . . . 
[2]|
e|:|-----------------|
B|:|-----------------|
G|:|-----------------|
D|:|-//           //-|
A|:|-// Pickslide //-|
E|:|-//           //-|



---------------------------------|----------|--------------------------------
---------------------------------|- Chorus -|--------------------------------
---------------------------------|----------|--------------------------------



[1]
e|:|--------------------|-------------------|
B|:|--------------------|-222222223333333-2-|
G|:|-666666666677777777-|-xxxxxxxxxxxxxxx-x-|
D|:|-555555555555555555-|-222222222222222-2-|
A|:|-555555555555555555-|-222222222222222-2-|
E|:|-333333333333333333-|-000000000000000-0-|
 | |                    |
[2]|--------------------|-------------------|
e|:|--------------------|-------------------|
B|:|--------------------|-------------------|
G|:|-12121212/1414/1616-|-12121212/14/12/11-|
D|:|--------------------|-------------------|
A|:|-10101010/1212/1414-|-10101010/12/10/9 -|
E|:|--------------------|-------------------|
    
    "At the end of..."    "... Or the last..."

[1]
e|:|----------------|------------------|
B|:|-2222223333-x-2-|-2222233333-x-2---|
G|:|-4444444444-x-4-|-2222222222-x-2---|
D|:|-4444444444-x-4-|-2222222222-x-2---|
A|:|-2222222222-x-2-|-0000000000-x-0---|
E|:|----------------|------------------|
 | |
[2]|
e|:|---------------|--|----------------|
B|:|---------------|--|----------------|
G|:|-11/12/11/9/11-|--|-11/12/11/9-x-9-|
D|:|---------------|--|------------x---|
A|:|-9 /10/9 /7/9 -|x3|-9 /10/9 /7-x-7-|
E|:|---------------|--|----------------|
  
    "...never coming home ...never coming..."

[1]
e|:|---------------|----------------|
B|:|-222222-222222-|-22222233333333-|
G|:|-222222-333333-|-xxxxxxxxxxxxxx-|
D|:|-444444-444444-|-22222222222222-|
A|:|-555555-555555-|-22222222222222-|
E|:|-222222-222222-|-00000000000000-|
 | |               | 
[2]|               |
e|:|---------------|----------------|
B|:|---------------|----------------|
G|:|-666666/777777-|-9999/11111111--|
D|:|---------------|----------------|
A|:|-444444/555555-|-7777/9 9 9 9 --|
E|:|---------------|----------------|

    "...and all the things that..."

<< Tone End



---------------------------------|---------|---------------------------------
---------------------------------|-Verse 2-|---------------------------------
---------------------------------|---------|---------------------------------



>> Tone Change

	Guitar [1] - clean, with sustain
	Guitar [2] - clean, with sustain

[1]
e|:|-------------------------|--|
B|:|-------------------------|--|
G|:|-7-----7-----6---------6-|--|
D|:|-7-----7-----7---------7-|--|
A|:|-------------------------|x2|
E|:|---7-7---7-7---7-7-7-7---|--|
 | |   . .   . .   . . . .                     
[2]|
e|:|----------------------------|
B|:|----------------------------|
G|:|-14~-14-12-11~---14~-12-11~-|
D|:|----------------------------|
A|:|----------------------------|
E|:|----------------------------|
  
   "Ever, Get the feeling..."

[1]
e|:|------------------------------|--|        
B|:|------------------------------|--|       
G|:|-7-----7-----6----------6-----|--|      
D|:|-7-----7-----7----------7-----|--|      
A|:|------------------------------|x2|        
E|:|---0-0---0-0----0-0-0-0-------|--|   
 | |   . .   . .    . . . .
[2]|
e|:|---------------------------------|
B|:|---------------------------------|
G|:|-9-----------9-------------------|
D|:|---12-11-9~----12p11-12p11-9-----|
A|:|-----------------------------12~-|
E|:|---------------------------------|

    "...You're never, all alone..."

[1]
e|:|-------------------------|--|
B|:|-------------------------|--|
G|:|-7-----7-----6---------6-|--|
D|:|-7-----7-----7---------7-|--|
A|:|-------------------------|x2|
E|:|---7-7---7-7---7-7-7-7---|--|
 | |   . .   . .   . . . .                     
[2]|
e|:|---------------------------------------|--|
B|:|---------------------------------------|--|
G|:|-9h11----------------11-11-11-11-11-11-|--|
D|:|------12h14-11h12-11-11-11-11-11-11-11-|x2|
A|:|---------------------------------------|--|
E|:|---------------------------------------|--|

    "... remember now..."

[1]
e|:|-----------------------------------|--|        
B|:|-----------------------------------|--|       
G|:|-7-----7-----6----------6----------|--|      
D|:|-7-----7-----7----------7----------|--|      
A|:|-----------------------------------|x2|        
E|:|---0-0---0-0----0-0-0-0------------|--|        
 | |   . .   . .    . . . .            | 
[2]|                                   |
e|:|-----------------------------------|-----------------------|
B|:|-----------------------------------|-----------------------|
G|:|-11-------12-11----14--------------|-11--------------------|
D|:|----14-12-------12----12-11h12-14~-|----12p11-12p11-14-12~-|
A|:|-----------------------------------|-----------------------|
E|:|-----------------------------------|-----------------------|

    "...She dies...."

<< Tone End



--------------------------------|------------|-------------------------------
--------------------------------|-Pre Chorus-|-------------------------------
--------------------------------|------------|-------------------------------



>> Tone Change
[ Tab from: http://www.guitartabs.cc/tabs/m/my_chemical_romance/ghost_of_you_tab_ver_3.html ]
	Guitar [1] - Distortion 
	Guitar [2] - Distortion
[1]
e|:|-----------------|
B|:|-----------------|
G|:|-----------------|
D|:|-4-4-4-4-4-4-4-4-|
A|:|-4-4-4-4-4-4-4-4-|
E|:|-2-2-2-2-2-2-2-2-|
 | | . . . . . . . . 
[2]|
e|:|-----------------|
B|:|-----------------|
G|:|-----------------|
D|:|-//           //-|
A|:|-// Pickslide //-|
E|:|-//           //-|



---------------------------------|----------|--------------------------------
---------------------------------|- Chorus -|--------------------------------
---------------------------------|----------|--------------------------------



[1]
e|:|--------------------|-------------------|
B|:|--------------------|-222222223333333-2-|
G|:|-666666666677777777-|-xxxxxxxxxxxxxxx-x-|
D|:|-555555555555555555-|-222222222222222-2-|
A|:|-555555555555555555-|-222222222222222-2-|
E|:|-333333333333333333-|-000000000000000-0-|
 | |                    |
[2]|--------------------|-------------------|
e|:|--------------------|-------------------|
B|:|--------------------|-------------------|
G|:|-12121212/1414/1616-|-12121212/14/12/11-|
D|:|--------------------|-------------------|
A|:|-10101010/1212/1414-|-10101010/12/10/9 -|
E|:|--------------------|-------------------|
    
    "At the end of..."    "... Or the last..."

[1]
e|:|----------------|------------------|
B|:|-2222223333-x-2-|-2222233333-x-2---|
G|:|-4444444444-x-4-|-2222222222-x-2---|
D|:|-4444444444-x-4-|-2222222222-x-2---|
A|:|-2222222222-x-2-|-0000000000-x-0---|
E|:|----------------|------------------|
 | |
[2]|
e|:|---------------|--|----------------|
B|:|---------------|--|----------------|
G|:|-11/12/11/9/11-|--|-11/12/11/9-x-9-|
D|:|---------------|--|------------x---|
A|:|-9 /10/9 /7/9 -|x3|-9 /10/9 /7-x-7-|
E|:|---------------|--|----------------|
  
    "...never coming home ...never coming..."

[1]
e|:|---------------|----------------|
B|:|-222222-222222-|-22222233333333-|
G|:|-222222-333333-|-xxxxxxxxxxxxxx-|
D|:|-444444-444444-|-22222222222222-|
A|:|-555555-555555-|-22222222222222-|
E|:|-222222-222222-|-00000000000000-|
 | |               | 
[2]|               |
e|:|---------------|----------------|
B|:|---------------|----------------|
G|:|-666666/777777-|-9999/11111111--|
D|:|---------------|----------------|
A|:|-444444/555555-|-7777/9 9 9 9 --|
E|:|---------------|----------------|

    "...and all the things that..."

[1]
e|:|----------------|------------------|
B|:|-2222223333-x-2-|-2222233333-x-2---|
G|:|-4444444444-x-4-|-2222222222-x-2---|
D|:|-4444444444-x-4-|-2222222222-x-2---|
A|:|-2222222222-x-2-|-0000000000-x-0---|
E|:|----------------|------------------|
 | |
[2]|
e|:|---------------|--|----------------|
B|:|---------------|--|----------------|
G|:|-11/12/11/9/11-|--|-11/12/11/9-x-9-|
D|:|---------------|--|------------x---|
A|:|-9 /10/9 /7/9 -|x3|-9 /10/9 /7-x-7-|
E|:|---------------|--|----------------|
  
    "...never coming home ...never coming..."

[1]
e|:|---------------|----------------|
B|:|-222222-222222-|-22222233333333-|
G|:|-222222-333333-|-xxxxxxxxxxxxxx-|
D|:|-444444-444444-|-22222222222222-|
A|:|-555555-555555-|-22222222222222-|
E|:|-222222-222222-|-00000000000000-|
 | |               | 
[2]|               |
e|:|---------------|----------------|
B|:|---------------|----------------|
G|:|-666666/777777-|-9999/11111111--|
D|:|---------------|----------------|
A|:|-444444/555555-|-7777/9 9 9 9 --|
E|:|---------------|----------------|

    "...for all the ghosts..."


<< Tone End



---------------------------------|----------|--------------------------------
---------------------------------|- Bridge -|--------------------------------
---------------------------------|----------|--------------------------------



>> Tone Change

	Guitar [1] - clean
	Guitar [2] - clean

[1]
e|:|------------------------------------------|
B|:|------3-----------3---------3---------3---|
G|:|------------------------------------------|
D|:|-4-----------4---------4---------4--------|
A|:|---2----2----------------4----4-----------|
E|:|---------------3----3--------------2----2-|

      "... If I fall..."
[1]
e|:|------------------------------------------|
B|:|------3-----------3---------3---------3---|
G|:|------------------------------------------|
D|:|-4-----------4---------4---------4--------|
A|:|---2----2----------------4----4-----------|
E|:|---------------3----3--------------2----2-|
[2]|
e|:|--------------7------------------|
B|:|-----7------8--8------8p7--------|
G|:|---7---7--9-----9---7-------9-6~-|
D|:|-9----------------9--------------|
A|:|---------------------------------|
E|:|---------------------------------|

     "...If I fall... down..."

<< Tone End



---------------------------------|--------|----------------------------------
---------------------------------|- Solo -|----------------------------------
---------------------------------|--------|----------------------------------



>> Tone Change

	Guitar [1] - Distortion 
	Guitar [2] - Distortion


[1]
e|:|---------------------------------------------------------------------|--|
B|:|---------------------------------------------------------------------|--|
G|:|-4444444444444444------------------6666666666666666------------------|--|
D|:|-4444444444444444-5555555555555555-6666666666666666-4444444444444444-|--|
A|:|-2222222222222222-5555555555555555-4444444444444444-4444444444444444-|x4|
E|:|------------------3333333333333333------------------2222222222222222-|--|
 | |
[2]|
e|:|--------------------------------------------------------/
B|:|---------7-------------8------------7-------------------/
G|:|---7-6h7---7----7-6h7----7----7-6h7---7-9p7/6~-6h7p6----/
D|:|-9------------9-------------9------------------------7~-/
A|:|--------------------------------------------------------/
E|:|--------------------------------------------------------/
   |
   |-----------------------------------------------/
   |---------7-------------8------------7----------/
   |---7-6h7---7----7-6h7----7----7-6h7---7-7b(9)--/
   |-9------------9-------------9------------------/
   |-----------------------------------------------/
   |-----------------------------------------------/


------>> Harmonised Riff

[2]
e|:|-----------------------------------------------------------|
B|:|-----------------------------------------------------------|
G|:|-----------------------------------------------------------|
D|:|-0----/2-/4-/5~---/4--/2~---0-----0----/2-/4-/5~---/4--/2~-|
A|:|-------------------------------4---------------------------|
E|:|-----------------------------------------------------------|

Guitar [3] - layered
e|:|-----------------------------------------------------------|
B|:|-----------------------------------------------------------|
G|:|-----------------------------------------------------------|
D|:|-----------------------------------------------------------|
A|:|-2~---/4-/5-/7~---/5--/4~---2--0--2~---/4-/5-/7~---/5--/4~-|
E|:|-----------------------------------------------------------|



OR this part can be played on one guitar:

e|:|--------------------------------------------------------|
B|:|--------------------------------------------------------|
G|:|--------------------------------------------------------|
D|:|-0----/2-/4-/5---/4--/2----0-----0----/2-/4-/5---/4--/2-|
A|:|-2----/4-/5-/7---/5--/4----2--4--2----/4-/5-/7---/5--/4-|
E|:|------------------------------5-------------------------|

-------<<

---------------------------------|---------|---------------------------------
---------------------------------|- Outro -|---------------------------------
---------------------------------|---------|---------------------------------



[1+2]
e|:|-----------------|
B|:|-----------------|
G|:|-----------------|
D|:|-4-4-4-4-4-4-4-4-|
A|:|-4-4-4-4-4-4-4-4-|
E|:|-2-2-2-2-2-2-2-2-|
     . . . . . . . .

[1]
e|:|--------------------|-------------------|
B|:|--------------------|-222222223333333-2-|
G|:|-666666666677777777-|-xxxxxxxxxxxxxxx-x-|
D|:|-555555555555555555-|-222222222222222-2-|
A|:|-555555555555555555-|-222222222222222-2-|
E|:|-333333333333333333-|-000000000000000-0-|
 | |                    |
[2]|--------------------|-------------------|
e|:|--------------------|-------------------|
B|:|--------------------|-------------------|
G|:|-12121212/1414/1616-|-12121212/14/12/11-|
D|:|--------------------|-------------------|
A|:|-10101010/1212/1414-|-10101010/12/10/9 -|
E|:|--------------------|-------------------|
    
    "At the end of..."    "... Or the last..."

[1]
e|:|----------------|------------------|
B|:|-2222223333-x-2-|-2222233333-x-2---|
G|:|-4444444444-x-4-|-2222222222-x-2---|
D|:|-4444444444-x-4-|-2222222222-x-2---|
A|:|-2222222222-x-2-|-0000000000-x-0---|
E|:|----------------|------------------|
 | |
[2]|
e|:|---------------|--|----------------|
B|:|---------------|--|----------------|
G|:|-11/12/11/9/11-|--|-11/12/11/9-x-9-|
D|:|---------------|--|------------x---|
A|:|-9 /10/9 /7/9 -|x3|-9 /10/9 /7-x-7-|
E|:|---------------|--|----------------|
  
    "...never coming home ...never coming..."

[1]
e|:|---------------|----------------|
B|:|-222222-222222-|-22222233333333-|
G|:|-222222-333333-|-xxxxxxxxxxxxxx-|
D|:|-444444-444444-|-22222222222222-|
A|:|-555555-555555-|-22222222222222-|
E|:|-222222-222222-|-00000000000000-|
 | |               | 
[2]|               |
e|:|---------------|----------------|
B|:|---------------|----------------|
G|:|-666666/777777-|-9999/11111111--|
D|:|---------------|----------------|
A|:|-444444/555555-|-7777/9 9 9 9 --|
E|:|---------------|----------------|

    "...and all the things that..."

[1]
e|:|----------------|------------------|
B|:|-2222223333-x-2-|-2222233333-x-2---|
G|:|-4444444444-x-4-|-2222222222-x-2---|
D|:|-4444444444-x-4-|-2222222222-x-2---|
A|:|-2222222222-x-2-|-0000000000-x-0---|
E|:|----------------|------------------|
 | |
[2]|
e|:|---------------|--|----------------|
B|:|---------------|--|----------------|
G|:|-11/12/11/9/11-|--|-11/12/11/9-x-9-|
D|:|---------------|--|------------x---|
A|:|-9 /10/9 /7/9 -|x3|-9 /10/9 /7-x-7-|
E|:|---------------|--|----------------|
  
    "...never coming home ...never coming..."

[1]
e|:|---------------|----------------|
B|:|-222222-222222-|-22222233333333-|
G|:|-222222-333333-|-xxxxxxxxxxxxxx-|
D|:|-444444-444444-|-22222222222222-|
A|:|-555555-555555-|-22222222222222-|
E|:|-222222-222222-|-00000000000000-|
 | |               | 
[2]|               |
e|:|---------------|----------------|
B|:|---------------|----------------|
G|:|-666666/777777-|-9999/11111111--|
D|:|---------------|----------------|
A|:|-444444/555555-|-7777/9 9 9 9 --|
E|:|---------------|----------------|

    "...for all the ghosts..."

<< End. Enjoy!
Comments