My Chemical Romance - Drowning Lessons Chords & Tabs

 

Drowning Lessons Chords & Tabs

My Chemical Romance Chords & Tabs

Version: 2 Type: Tab 1 rating
1 star 2 stars 3 stars 4 stars 5 stars
comments

Drowning Lessons Tab

-----------------------------------------------------------------
-----------------------------------------------------------------

Tuning:Drop D

                      x3
|-----------------------|-------------|-------------------------|
|-10-10--9-9-9--5-5-5-5-|--7-7-7-7-7--|-------------------------|
|-x--x---x-x-x--x-x-x-x-|--x-x-x-x-x--|-------------------------|
|-7--7---6-6-6--2-2-2-2-|--4-4-4-4-4--|-7-7-7--7-7-7------------|
|-----------------------|-------------|-7-7-7--7-7-7------------|
|-----------------------|-------------|7-7-7--7-7-7-------------|
                                        x x    x x
                      x2
|-----------------------|---------------------------------------|
|-10-10--9-9-9--5-5-5-5-|-9-9-9--7-7-7--9-9-9--7-7-7--5-5-------|
|-x--x---x-x-x--x-x-x-x-|-x-x-x--x-x-x--x-x-x--x-x-x--x-x-------|
|-7--7---6-6-6--2-2-2-2-|-6-6-6--4-4-4--6-6-6--4-4-4--2-2-------|
|-----------------------|---------------------------------------|
|-----------------------|---------------------------------------|

|---------------------------------------------------------------|
|---------------------------------------------------------------|
|---------------------------------------------------------------|
|-7-7-7--7-7-7--------------------------------------------------|
|-7-7-7--7-7-7--------------------------------------------------|
|-7-7-7--7-7-7--------------------------------------------------|
  x x    x x          

|---------------------------------------------------------------|
|---------------------------------------------------------------|
|-7-7-7-7-7-7-7-7-7-7-7-----------------------------------------|
|-7-7-7-7-7-7-7-7-7-7-7-----------------------------------------|
|-5-5-5-5-5-5-5-5-5-5-5-----------------------------------------|
|---------------------------------------------------------------|
  x x   x x   x 
 
|---------------------------------------------------------------|
|---------------------------------------------------------------|
|-9-9-9-9-9-9-9-9-9-9-9-----------------------------------------|
|-9-9-9-9-9-9-9-9-9-9-9-----------------------------------------|
|-7-7-7-7-7-7-7-7-7-7-7-----------------------------------------|
|---------------------------------------------------------------|
  x x   x x   x 
[ Tab from: http://www.guitartabs.cc/tabs/m/my_chemical_romance/drowning_lessons_tab_ver_2.html ]
|---------------------------------------------------------------|
|---------------------------------------------------------------|
|-6-6-6-6-6-6-6-6-6-6-6-----------------------------------------|
|-6-6-6-6-6-6-6-6-6-6-6-----------------------------------------|
|-4-4-4-4-4-4-4-4-4-4-4-----------------------------------------|
|---------------------------------------------------------------|
  x x   x x   x

|---------------------------------------------------------------|
|---------------------------------------------------------------|
|-4-4-4-4-4-4-----3-3-3-3-3-3-----------------------------------|
|-4-4-4-4-4-4-----3-3-3-3-3-3-----------------------------------|
|-2-2-2-2-2-2-----1-1-1-1-1-1-----------------------------------|
|---------------------------------------------------------------|
  x x   x x       x x   x x 

|--------------------------------------------------------------------| 
|--------------------------------------------------------------------| 
|--7-6--7-6-9-9--7-6-9-----------7-6-9--7-6-9-9-11-9-13-11-13-11-----| 
|--x-x--x-x-x-x--x-x-x-----------x-x-x--x-x-x-x-x--x-xx-x--xx-x------| 
|--5-4--5-4-7-7--5-4-7-55/4/2/0--5-4-7--5-4-7-7-9--7-11-9--11-9------| 
|--------------------------------------------------------------------| 

|--------------------------------------------------------------------|
|--------------------------------------------------------------------| 
|--14-13-14-13-16-16-18-16-18-18-18/19/18/16/14----------------------| 
|--xx-xx-xx-xx-xx-xx-xx-xx-xx-xx-xx/xx/xx/xx/xx----------------------| 
|--12-11-12-11-14-14-16-14-16-16-16/17/16/14/12----------------------| 
|--------------------------------------------------------------------| 

|--------------------------------------------------------------------| 
|--------------------------------------------------------------------| 
|--14-13-9--14-13-9-11-9-13/14/13/14/13------------------------------| 
|--xx-xx-x--xx-xx-x-x--x-xx/xx/xx/xx/xx------------------------------| 
|--12-11-7--12-11-7-9--7-11/12/11/12/11------------------------------| 
|--------------------------------------------------------------------| 

|--------------------------------------------------------------------| 
|--------------------------------------------------------------------| 
|--------------------------------------------------------------------| 
|--7--7--7--7--7--9--7--7--77----------------------------------------| 
|--5--4--5--4--5--7--4--5--54--------fade out------------------------| 
|--0--0--0--0--0--0--0--0--00----------------------------------------|
Comments