My Chemical Romance - Demolition Lovers Chords & Tabs

 

Demolition Lovers Chords & Tabs

My Chemical Romance Chords & Tabs

Version: 1 Type: Tab 11 ratings
1 star 2 stars 3 stars 4 stars 5 stars
comments

Demolition Lovers Tab

My Chemical Romance "Demolition Lovers", I brought you my bullets, You brought me your love

tabber: dawn
e-mail: burnt_vacant_red@yahoo.com; AIM: voicesofviolence

here's the whole song, completed, FINALLY.

intro/verse
|----------------------------------------------------------------------------
|----------------------------------------------------------------------------
|------0-------0--------0------0----------------5-5-5-5---4-4-4-4----
|----1---1---1---1----6--6---6---6---0-----0----5-5-5-5---4-4-4-4---
|--3-------3-------3/8------8-------3--3--3-3---3-3-3-3---2-2-2-2---
|----------------------------------4-----4------3-3-3-3---3-3-3-3---
hand in my hand, into your icy blues.....

|-----------------------------------------------------------------------------
|-----------------------------------------------------------------------------
|-----------------------------------------------------------------------------
|-10-10-10-10-10-10-10-10-12-12-12-12-12-12-12-12-12-12-12-12-12-12-12-12----
|--x-x--x--x--x--x--x--x--x--x--x--x--x--x--x--x--x--x--x--x---x--x--x-x----
|--8--8-8--8--8--8--8--8--10-10-10-10-10-10-10-10-10-10-10-10-10-10-10-10----
im trying to let you know..

|-------------------------------
|-------------------------------
|-------------------------------
|-13-13-13-13--15-15-15-15------
|-x--x--x--x---x--x--x--x-------
|-11-11-11-11--13-13-13-13------
just how much you mean to me..

|-------------------------------------------
|-------------------------------------------
|-------------------------------------------
|-10-10-10-10-10-10-10-10-8-8-8-8-8-8-8-8---
|-x---x-x--x--x--x--x--x--x-x-x-x-x-x-x-x---
|--8--8-8--8--8--8--8--8--6-6-6-6-6-6-6-----
and after all the things...

|-----------------------------------------------------
|-----------------------------------------------------
|-----------------------------------------------------
|--9-9-9-9-9-9-9-9-15-15-15-9-9-9-----
|--x-x-x-x-x-x-x-x-x--x--x--x-x-x-------
|--7-7-7-7-7-7-7-7-13-13-13-7-7-7-----
we put each other through

play intro again, or:
|-----------------------------------------------------
|------------63~----3-3b4r3---1------3------------
|-5/8~ --------------------------------------3-1-0----
|-----------------------------------------------------
|-----------------------------------------------------
|-----------------------------------------------------
and i would drive on to the end with you...

guitar 1: palm muted. .  .  .
|--------------------------------------------------------------------------
|-------------------------------------------------------------------------------
|-----------------------------------------------------------------------------
|-6-6-6-6-6-6-6-6-8-8-8-8-8-8-8-8-9-9-9-9-9-9-9-9-10-10-10-10-8-8-8-8--
|-6-6-6-6-6-6-6-6-8-8-8-8-8-8-8-8-9-9-9-9-9-9-9-9-10-10-10-10-8-8-8-8--
|-4-4-4-4-4-4-4-4-6-6-6-6-6-6-6-6-7-7-7-7-7-7-7-7--8--8-8--8--6-6-6-6--
  . . . . . . . . . . . . . . . . . . . . . . . .  .  . .  .  . . . .
but this time...

guitar 2:
|----------------------------------------------
|--4----4-----4-4-4-4---4-----4-----4-4-4-4-6--
|-7-7-7-7-7------------7--7-7--7-7-------------
|----------------------------------------------
|----------------------------------------------
|----------------------------------------------
but this time...

guitar 1: palm mute . . .
|----------------------------------------------------------------------------------
|----------------------------------------------------------------------------------
|----------------------------------------------------------------------------------
|-6-6-6-6-6-6-6-6-8-8-8-8-8-8-8-8-9-9-9-9-9-9-9-9-1010---10-10-8-8-8-8--
|-6-6-6-6-6-6-6-6-8-8-8-8-8-8-8-8-9-9-9-9-9-9-9-9-1010---10-10-8-8-8-8--
|-4-4-4-4-4-4-4-4-6-6-6-6-6-6-6-6-7-7-7-7-7-7-7-7-8-8----8--8--6-6-6-6--
  . . . . . . . . . . . . . . . . . . . . . . . .
as snow falls
~~~~~~
CHORUS
guitar 1:
|----------------------------------------------------------------------
|----------------------------------------------------------------------
|----------------------------------------------------------------------
|-6-6-6-6-6-6-6-6-8-8-8-8-8-8-8-8-9-9-9-9-9-9-9-9-10-10-10-10-8-8-8-8--  {x2}
|-6-6-6-6-6-6-6-6-8-8-8-8-8-8-8-8-9-9-9-9-9-9-9-9-10-10-10-10-8-8-8-8--
|-4-4-4-4-4-4-4-4-6-6-6-6-6-6-6-6-7-7-7-7-7-7-7-7--8--8-8--8--6-6-6-6--
im trying, im trying to let you know...  

guitar 2:

|-----------------------------------------------------------------------------------
|-----------------------------------------------------------------------------------
|-12-12-12-12-12-12-12-12-10-10-10-10-13-12-8-7--8-8-8-8-8-8-8-8-8-7-7-7-7--7-7-7-7-
|--x---x---x----x---x--x--x--x--x--x--x--x--x-x--x-x-x-x-x-x-x-x-x-x-x-x-x--x-x-x-x-
|-10-10-10-10-10-10-10-10-8--8--8--8--11-10-6-5--6-6-6-6-6-6-6-6-5-5-5-5-5-5-5-5----
|-----------------------------------------------------------------------------------
im trying, im trying to let you know...
~~~~~~

|-------------------------------
|-------------------------------
|-8-8--------10-10-------------
|-x-x--------x--x--------------
|-6-6--5-66--8-8----5-66-------
|-------------------------------
and we go cold...

|--------------------------34--------------------------
|-----------------------------4-------------------------
|-----------787---------------------------------------
|-10-10----------6-6---------8-8-------99-9---
|-10-10----------6-6---------8-8--655--99-9---
|--8--8----------4-4---------6-6-------77-7--
                                       ..
guitar 1:
|--------------------------------------
|--------------------------------------
|--------------------------------------
|-6-6--64-4--45-5-------------------------------
|-6-6--64-4--45-5-------------------------------
|-4-4--42-2--23-3------------------------------
until the end. until this pool of blood...

guitar 2:
|--------------------------------------
|--------------------------------------
|-8-8-85-5--5-5-4-----------------------------
|-x-x-xx-x--x-x-x----------------------------
|-6-6-63-3--3-3-2------------------------------
|-------------------------------------

{repeat part after "as we go cold"}
{repeat chorus x3}

[pause]

[ Tab from: http://www.guitartabs.cc/tabs/m/my_chemical_romance/demolition_lovers_tab.html ]
|------6-------6-------6----------------4-------4---------3-4-6------
|-------------------------------9----------3--------3--------------
|-8--------8-------8--------7------5/7-5--5--5----5---5--------------
|---8----8---8---8---8----8---8---8---------------------------------------- 
|-------------------------------------------------------------------------------
|-------------------------------------------------------------------------------
all we are....

|--------------------------------------
|--------------------------------------
|--------------------------------------
|--10-10----10-10-----5-6------
|--10-10----10-10-----5-6-------
|---8--8----8---8-----3-4------
all we are is bullets, i mean this

guitar 1 during solo:
|--------------------------------------------------------------
|--------------------------------------------------------------
|---------------------------------5-5-5-5-5-5-5-5--------------
|-6-6-6-6-6-6-6-6-6-6-6-6-6-6-6-6-5-5-5-5-5-5-5-5-5--5--5--5--- {x2}
|-6-6-6-6-6-6-6-6-6-6-6-6-6-6-6-6-3-3-3-3-3-3-3-3-5--5--5--5---
|-4-4-4-4-4-4-4-4-4-4-4-4-4-4-4-4-----------------3--3--3--3---

|------------------------------------------
|------------------------------------------
|------------------------------------------
|-6-6-6-6-88-88-88-88-8-10--5--5--5--5----- {x2}
|-6-6-6-6-88-88-88-88-8-10--5--5--5--5-----
|-4-4-4-4-66-66-66-66-6--8--3--3--3--3-----

|---------------------------------------------------
|---------------------------------------------------
|-----------------------------5~-5555--5555---------
|-6-6-6-6-6-6-6-6-8-8-6-6-6-6-5--xxxx--xxxx-55-6----
|-6-6-6-6-6-6-6-6-8-8-6-6-6-6-3--3333--3333-55-6----
|-4-4-4-4-4-4-4-4-6-6-4-4-4-4---------------33-4----
  . . . . . . . . . . . . . .  
guitar 2 solo:
|-----------------------------------------------------------------------------------
|------------------------------------------------------------------------------------
|-8-8-8-8-8-8-8-7-8-8-8-8-8-8-8-8--10-10-10-8-8-8-8-8-8-8-8-7-7-7-7-7-7-7-7-5-5-5-7-
|------------------------------------------------------------------------------------
|-----------------------------------------------------------------------------------|-----------------------------------------------------------------------------------

|-----------------------------------------------------------------------------------
|-------------------------------------8-9-8h9-8~---------------8/9--11-11-11-11-11-11
|-8-8-8-8-8-8-8-8--10-10-10-8-10-10-10----------10-10-8-8-8-87----------------------
|------------------------------------------------------------------------------------
|------------------------------------------------------------------------------------
|------------------------------------------------------------------------------------

|-10-11-10-11~--11-10-10-10-8-8-8/10-11-11-11-13-13-13--10/11-16-16-16-15-16-15--
|--------------------------------------------------------------------------------
|--------------------------------------------------------------------------------
|--------------------------------------------------------------------------------
|--------------------------------------------------------------------------------
|--------------------------------------------------------------------------------

|-{feedbackish}--------------------------------------------------------
|------------------9-9-9-11-11-11-11/16~-16-15-15-15-15-15-13-13-13-11-
|----------------------------------------------------------------------
|----------------------------------------------------------------------
|---------------11----------------------------------------------------
|----------------------------------------------------------------------

|--------------------------------------------------------------
|-11/13--9-9-9999-11-11-9-9-9-8h9p8-8-8-8---
|------------------------------------------------------------
|------------------------------------------------------------
|------------------------------------------------------------
|-----------------------------------------------------------



|--------------------------------------------------|guitar1|--guitar2| 
|--------------------------------------------------|-------|--99-----|
|--------------------------------------------------|-55-55-|--88-77--|
|-6-6-6-6-6-6-6-6-8-8-8-8-8-8-8-8-6-5-5-5-5-5-5-5-5|-55-55-|-----77-|
|-6-6-6-6-6-6-6-6-8-8-8-8-8-8-8-8-6-5-5-5-5-5-5-5-5|-33-55-|---------|
|-4-4-4-4-4-4-4-4-6-6-6-6-6-6-6-6-4-3-3-3-3-3-3-3-3|----33-|---------|
as lead rains pass on through....


|------------------------------------------------|guitar 1|-guitar 2-|
|------------------------------------------------|--------|-99-------|
|------------------------------------------------|-55-----|-88-77---|
|-6-6-6-6-6-6-6-6-8-8-8-8-8-8-8-8-9-9-9-9-9-9-9-9|-55-55--|----77--|
|-6-6-6-6-6-6-6-6-8-8-8-8-8-8-8-8-9-9-9-9-9-9-9-9|-33-55--|----------|
|-4-4-4-4-4-4-4-4-6-6-6-6-6-6-6-6-7-7-7-7-7-7-7-7|----33--|----------|
like scarecrows  that fuel this flame.....

guitar 1:
|-------------------------------------------------------------
|-------------------------------------------------------------
|-------------------------------------------------5555-5555---
|-6-6-6-6-6-6-6-6-8-8-8-8-8-8-8-8-9-9-9-9-9-9-9-9-5555-5555---  {x2}
|-6-6-6-6-6-6-6-6-8-8-8-8-8-8-8-8-9-9-9-9-9-9-9-9-3333-5555---
|-4-4-4-4-4-4-4-4-6-6-6-6-6-6-6-6-7-7-7-7-7-7-7-7------3333---
know how much i want to show you......


guitar 2:
|-----------------------------------
|-----------------------------------
|-----------------------------------
|----------------------------------- {x2}
|---6--3---------2-3-5-6~-5~----
|-4--4--6-4-3-1/3-------------------
know how much i want to show you

guitar 1:
|--------------------------------------------------------------------------
|--------------------------------------------------------------------------
|--------------------------------------------------------------------------
|-6-6-6-6-6-6-6-6-8-8-8-8-8-8-8-8-6-6-6-6-6-6-6-6-10-10-10-10-10-10-10-10--{repeat until end}
|-6-6-6-6-6-6-6-6-8-8-8-8-8-8-8-8-6-6-6-6-6-6-6-6-10-10-10-10-10-10-10-10--
|-4-4-4-4-4-4-4-4-6-6-6-6-6-6-6-6-4-4-4-4-4-4-4-4-8--8--8--8--8--8--8--8--
and as we're falling down...........i mean this, forever.

guitar 2:
|--------------------------------------------
|--------------------------------------------
|-12/13-13-13-1312-12-12108-8-8-87-7/---- {x3}
|-x--x--x--x--x--x--x--x---x-x-x-x-x-x-x-----
|-10/11-11-11-1110-10-10-86-6-6-65-7/----
|--------------------------------------------
and as we're falling down....

|----------------------
|----------------------
|-13-1312/131210/---
|-x--x--x--x--x--x-----
|-11-1110/1110-8-/--
|----------------------
and as we're touching hands...

|--------------------------------------------
|--------------------------------------------
|-12/13-13-13-1312-12-12108-8-8-87-7/---- {x3}
|-x--x--x--x--x--x--x--x---x-x-x-x-x-x-x-----
|-10/11-11-11-1110-10-10-86-6-6-65-7/----
|--------------------------------------------
and as we're falling down....i mean this forever
Comments