My Chemical Romance - Demolition Lovers Chords & Tabs

 

Demolition Lovers Chords & Tabs

My Chemical Romance Chords & Tabs

Version: 1 Type: Bass Tab 0 ratings
1 star 2 stars 3 stars 4 stars 5 stars
comments

Demolition Lovers Bass Tab

----------------------------------------------------------------------------
		Demolition Lovers - my chemical romance
----------------------------------------------------------------------------

Tabbed By: o17541
e-mail: o17541@yahoo.com

I'm 90% sure that these notes are correct. You may want to fool with the octave.

G|-----------------------------------------------------------------------|
D|-----3-33-6-66-5-55----------------------------------------------------|4x
A|3-33-------------------------------------------------------------------|
E|-----------------------------------------------------------------------|

G|-----------------------------------------------------------------------|
D|-----------------------------------------------------------------------|
A|-----------------------------------------------------------------------|2x
E|4444-4444-6666-6666-7777-7777-8888-6666--------------------------------|

G|-----------------------------------------------------------------------|
D|-----3-33-6-66-5-55----------------------------------------------------|2x
A|3-33-------------------------------------------------------------------|
E|-----------------------------------------------------------------------|
[ Tab from: http://www.guitartabs.cc/tabs/m/my_chemical_romance/demolition_lovers_btab.html ]
G|-----------------------------------------------------------------------|
D|-----------------------------------------------------------------------|
A|-----------------------------------------------------------------------|3x
E|4444-4444-6666-6666-7777-7777-8888-6666--------------------------------|

G|-----------------------------------|-----------------------------------|
D|-----------------------------------|-----------------------------------|
A|-----------------------------------|-----------------------------------|
E|4444-4444-6666-6666-7777-7777-88-66|88-44-66--77-44-22-33--------------|
                                     |---------------2x------------------|

G|-----------------------------------------------------------------------|
D|-----------------------------------------------------------------------|
A|-----------------------------------------------------------------------|4x
E|4444-4444-6666-6666-7777-7777-8888-6666--------------------------------|

after drum solo, listen to ride, should play 8th notes
G|-----------------------------------------------------------------------|
D|-----------------------------------------------------------------------|
A|-----------------3333333333333333--------------------------------------|9x
E|4444444444444444-------------------------------------------------------|

E|44-44-43---------------------------------------------------------------|

G|-----------------------------------------------------------------------|
D|-----------------------------------------------------------------------|
A|-----------------------------------------------------------------------|8x
E|4444-4444-6666-6666-7777-7777-8888-6666--------------------------------|
Comments