My Chemical Romance - Cemetery Drive Chords & Tabs

 

Cemetery Drive Chords & Tabs

My Chemical Romance Chords & Tabs

Version: 3 Type: Tab

Cemetery Drive Tab

   
Cemetary Drive - My Chemical Romance
Tabbed by: BdonGraffiti
Email: SprtXplrer@aol.com

Tuning:Standard

i did this tab...because everyone else wasn't complete and almost half wrong..yes indeed.

Verse:Guitar1 (Ray)riff1
e|--------------------------------------|
B|--------------------------------------|
G|--------------------------------------|4x and then
D|-2h4-4h6-6h7-7h9-9--2h4-4h6-6h7-7p6-4-|
A|--------------------------------------|
E|--------------------------------------|

riff 2
e|---------------------------------------|
B|---------------------------------------|
G|-----------------9---------------------|4x
D|-2h4-4h6-6h7-7h9-9-9-2h4-4h6-6h7-7p6-4-|
A|---------------------------------------|
E|---------------------------------------|

Verse:Guitar2 (Frank)riff 1
e|-----------------------------------------------------------------------|
B|-----------------------------------------------------------------------|
G|14-14-1414-14-14-11-11-1111-11-11-1818-18-18-18-1820-16-1616-16-1618-16|
D|-x--x--x-x--x--x--x--x--x-x--x--x--x-x--x--x--x--x-x--x--x-x--x--x-x--x|2x
A|12-12-1212-12-12--9--9--9-9--9--9-1616-16-16-16-1618-14-1414-14-1416-14|
E|-----------------------------------------------------------------------|

then

riff 2
e|-----------------------------------------------|
B|-----------------------------------------------|
G|-9-11-9-11-9-6-7-6~-13-14-13-11-11h13-11-13-11-|
D|-----------------------------------------------|2x
A|-----------------------------------------------|
E|-----------------------------------------------|

2nd verse play this instead of the riff2 above, after riff 1
e|--------------------------------------------------------|
B|--------------------------------------------------------|
G|-14-13-11-9-11-13-14-13-11-13-14-16-14-13-11-9-11-18-16-|
D|--------------------------------------------------------|
A|--------------------------------------------------------|
E|--------------------------------------------------------|
[ Tab from: http://www.guitartabs.cc/tabs/m/my_chemical_romance/cemetery_drive_tab_ver_3.html ]
Chorus: Guitar1 (Ray)
e|-----------------------------------------------------|
B|-----------------------------------------------------|
G|-444444444444444---------------6666666-4444666688889-|
D|-444444444444444-444444-222222-6666666-xxxxxxxxxxxxx-|2x
A|-222222222222222-444444-222222-4444444-2222444466667-|
E|-----------------222222-000000-----------------------|
 PM...............

Chorus: Guitar2 (Ray)
e|----------------------------------------------|
B|----------------------------------------------|
G|-444444444444444---------------6666666-444444-|
D|-444444444444444-444444-222222-6666666-444444-|2x
A|-222222222222222-444444-222222-4444444-222222-|
E|-----------------222222-000000----------------|
 PM...............

Play Verse 2 (same as Verse 1)

Chorus

Bridge: Both Guitar 1 and 2 play the same thing.
e|---------------------------------------------------------------------|
B|---------------------------------------------------------------------|
G|-----------------------------------66666666666666-6-44444444444444-4-|
D|-77777777777777-7-44444444444444-4-66666666666666-6-44444444444444-4-|2x
A|-77777777777777-7-44444444444444-4-44444444444444-4-22222222222222-2-|
E|-55555555555555-5-22222222222222-2-----------------------------------|
   ..............   ..............   ..............   ..............

Chorus

2nd time chorus is played @ the end, Guitar 1(Ray) plays this:
e|------------------------------------------------|
B|-101010109-555-1010109-5554-555-7-555-4-5-4-----|
G|-xxxxxxxxx-xxx--x-x-xx-xxxx-xxx-x-xxx-x-x-x-6-4-|
D|--7-7-7-76-222--9-9-96-2221-222-4-222-1-2-1-x-x-|
A|--------------------------------------------4-2-|
E|------------------------------------------------|

Outro: Guitar 2 (Frank)
e|----------------------------------------------------------|
B|----------------------------------------------------------|
G|----------------------------------------------------------|
D|----------------------------------------------------------|
A|-12-11-9-11-7-9-11-11-12-11-9-11-12-14-12-11-9-7-9-4-2-0~-|
E|----------------------------------------------------------|

Outro: Guitar 1 (Ray)
e|--------<12>--<12>---------<12>----<12>-------<12>----<12>-|
B|-----------<12>----------------<12>---------------<12>-----|
G|-----------------------------------------------------------|
D|-----------------------------------------------------------|
A|-----------------------------------------------------------|
E|-----------------------------------------------------------|

| /  slide up
| \  slide down
| h  hammer-on
| p  pull-off
| ~  vibrato
| <> harmonic
| x  mute note
| .  palm mute