My Chemical Romance - Cemetery Drive Chords & Tabs

 

Cemetery Drive Chords & Tabs

My Chemical Romance Chords & Tabs

Version: 2 Type: Bass Tab 0 ratings
1 star 2 stars 3 stars 4 stars 5 stars
comments

Cemetery Drive Bass Tab

Song: Cemetery Drive
Artist: My Chemical Romance
Album: Three Cheers For Sweet Revenge
Bassist: Mikey Way
Tabbed By: Jenny! (blink182mestfan@netscape.net)

I noticed all of the other tabs are an octave higher than what Mikey really plays. I saw 
live, I know that he plays the way i tabbed this! Have Fun

Verse: 00:08
G------------------------------------|
D------------------------------------|  X3
A--------------4~---2~---------------|
E---5~----2~-------------------------|

G------------------------------------|
D------------------------------------|
A--------------4~---222222222222-----|
E---5~----2~-------------------------|

Chorus: 00:42
G------------------------------------|
D------------------------------------|
A-----------------444444--222222-----|
E-222222--000000---------------------|

G------------------------------------|
D------------------------------------|
A-----------------444444--222222-----|
E-555555--222222---------------------|

Verse: 00:58

G------------------------------------|
D------------------------------------|  x2
A-----------------444-4h6--222-2h4p2-|
E--5555-55--222-0--------------------|

G------------------------------------|
D------------------------------------|
A--------------4~---2~---------------|
E---5~----2~-------------------------|

G------------------------------------|
D------------------------------------|
A--------------4~---222222222222-----|
E---5~----2~-------------------------|

Chorus: 1:31
[ Tab from: http://www.guitartabs.cc/tabs/m/my_chemical_romance/cemetery_drive_btab_ver_2.html ]
G------------------------------------|
D------------------------------------|
A-----------------444444--222222-----|
E-222222--000000---------------------|

G------------------------------------|
D------------------------------------|
A-----------------444444--222222-----|
E-555555--222222---------------------|


Bridge: 1:47

G------------------------------------|
D------------------------------------|  x2
A--------------4-x12--2-x12----------|
E-5-x12--2-x12-----------------------|


Chorus: 2:04

G------------------------------------|
D------------------------------------|
A-----------------444444--222222-----|
E-222222--000000---------------------|
                                        x1
G------------------------------------|
D------------------------------------|
A-----------------444444--222222-----|
E-555555--222222---------------------|


G------------------------------------|
D------------------------------------|
A-----------------444444--222222-----|
E-222222--000000---------------------|


G--------------------------------------|
D--------------------------------------|
A-----------------444444--222222-------|
E-555/151515--222222-------------------|
(these are 15^)


Outro: 2:37

G------------------------------------|
D------------------------------------|  X2
A--------------4~---2~---------------|
E---5~----2~-------------------------|

G------------------------------------|
D------------------------------------|
A------------------------------------|
E---5~-------------------------------|
Comments