My Chemical Romance - Cemetery Drive Chords & Tabs

 

Cemetery Drive Chords & Tabs

My Chemical Romance Chords & Tabs

Version: 1 Type: Bass Tab 0 ratings
1 star 2 stars 3 stars 4 stars 5 stars
comments

Cemetery Drive Bass Tab

Song: Cemetary Gates (#12)
By: My Chemical Romance
Album: Three Cheers For Sweet Revenge
Bassist: Mikey Way
Tabbed By: Courtney
Tuning: Standard

* = let ring

Verse 1 (X4)
G|---------------------------------------------------------|
D|--------------9*-----------------------------------------|
A|-12*--9*-------------------------------------------------|
E|----------9*---------------------------------------------|

Chorus
G|---------------------------------------------------------|
D|---------------------11-11-11-11-11--9-9-9-9-9-----------|
A|-9-9-9--99-----------------------------------------------|
E|-----------0-0-0--00-------------------------------------|
[ Tab from: http://www.guitartabs.cc/tabs/m/my_chemical_romance/cemetery_drive_btab.html ]
G|---------------------------------------------------------|
D|----------------------------------------9-9-9-999--------|
A|-12-12-12--121212--9-9-9-999-----------------------------|
E|------------------------------9-9-9-999------------------|

Verse 2
G|---------------------------------------------------------|
D|------------------------------------99-99-9*-------------|
A|-1212-1212-12*--99-99-9*---------------------------------|
E|--------------------------99-99-9*-----------------------|

Verse 1 (X2)

Chorus

Interlude
G|---------------------------------------------------------|
D|-----------------------------------99-99999--------------|
A|-1212-1212121212-99-99999--------------------------------|
E|--------------------------99-99999-----------------------|

Chorus (X2)

Verse 1 until the end

PLEASE RATE...you rock if you do...even if this tab doesnt...
Comments