My Chemical Romance - Astro Zombies Chords & Tabs

 

Astro Zombies Chords & Tabs

My Chemical Romance Chords & Tabs

Version: 3 Type: Tab

Astro Zombies Tab

My Chemical Romance
Astro Zombies
Tabbed by: andrewmmaa@yahoo.com

~:let ring

This is only Guitar 1, because Guitar 2 doesn’t have that much more than this except
a few notes that you can probably figure out yourself.

Intro:
e|---------------------------------------|
B|---------------------------------------|
G|---------------------------------------| x2
D|--10-9-999-7-5—555-3-333333-5—555555---| 
A|--10-9-999-7-5-555-3-333333-5—555555---|
E|--8--7-777-5-3-333-1-111111-3-333333---|

e|---------------------------------|
B|---------------------------------|
G|--5------------------------------| x2
D|--5—x5-333333—3----5-------------| 
A|--3----333333-3-x4-5-x4----------|
E|-------111111-1----3-------------|

Verse:
e|---------------------------------|
B|---------------------------------|
G|--5~------9~--10-12--------------| x2
D|--5~--7~--9~--10-12-—------------| 
A|--3~--7~--7~--8--10--------------|
E|------5~-------------------------|

e|---------------------------------|
B|---------------------------------|
G|--5---------7--------------------| x2
D|--5-x8-7----7—x8-5---------------| 
A|--3----7-x8-5----5—x8------------|
E|-------5---------3---------------|

e|---------------------------------|
B|---------------------------------|
G|--5------------------------------| x2
D|--5—x5-333333—3----5-------------| 
A|--3----333333-3-x4-5-x4----------|
E|-------111111-1----3-------------|
[ Tab from: http://www.guitartabs.cc/tabs/m/my_chemical_romance/astro_zombies_tab_ver_3.html ]
Verse:(palm muted)
e|-------------------------------------|
B|-------------------------------------|
G|--5----------------------------------| x2
D|--5-x16--7------2------3-----5-------| 
A|--3------7-x16--2-x16--3-x8--5-x8----|
E|---------5------0------1-----3-------|

e|---------------------------------|
B|---------------------------------|
G|--5---------7--------------------| x2
D|--5-x8-7----7—x8-5---------------| 
A|--3----7-x8-5----5—x8------------|
E|-------5---------3---------------|

e|---------------------------------|
B|---------------------------------|
G|--5------------------------------| x4 (fourth time hold last chord)
D|--5—x5-333333—3----5-------------| 
A|--3----333333-3-x4-5-x4----------|
E|-------111111-1----3-------------|

Outro:                 1st time            2nd time  
e|-------------------||-------------------|-----------------|
B|-------------------||-------------------|-----------------|  
G|-------------------||-------------------|--------------5~-| x2
D|--10-9-999-7-5—555-||-3-333333-5—555555-|--3-----5-----5~-|
A|--10-9-999-7-5-555-||-3-333333-5—555555-|--3-x6--5-x6--3~-|
E|--8--7-777-5-3-333-||-1-111111-3-333333-|--1-----3--------|

Ending solo:
e|--8-88-888-8-88-888------8-88-888-8-88-888-----------8~----|
B|--------------------8-x8-------------------6-x6—8-x6-------|
G|-----------------------------------------------------------| 
D|------------------—----------------------------------------|    
A|-----------------------------------------------------------|
E|-----------------------------------------------------------|
             
 (optional pick slide if you feel the need)



	Any questions? Email me. andrewmmaa@yahoo.com