My Chemical Romance - Astro Zombies Chords & Tabs

 

Astro Zombies Chords & Tabs

My Chemical Romance Chords & Tabs

Version: 1 Type: Bass Tab

Astro Zombies Bass Tab

   
Tempo= 210

Enjoy

Intro
g|-----------------------------------------|
d|-----------------------------------------| x2
a|-----------------------------------------|
E|-8-7~-5-3~-1-1-1-1-1-1-1-1-3-3-3-3-3-3-3-|

Pre verse
g|-----------------------------------------------------------------|
d|-----------------------------------------------------------------|x2
a|-----------------8-8-8-8-8-8-8-8---------------------------------|
E|-8-8-8-8-8-8-8-8-----------------1-1-1-1-1-1-1-1-3-3-3-3-3-3-3-3-|

Verse
g|-------------------------------------------------------------|
d|-------------------------------------------------------------|
a|-------------------------------------------------------------|
E|-8-8-8-8-8-8-8-8-8-8-8-8-8-8-8-5-5-5-5-5-5-5-5-5-5-5-5-5-5-5-|
[ Tab from: http://www.guitartabs.cc/tabs/m/my_chemical_romance/astro_zombies_btab.html ]
g|-------------------------------------------------------------|
d|-------------------------------------------------------------| x2
a|-7-7-7-7-7-7-7-7-7-7-7-7-7-7-7-8-8-8-8-8-8-10-10-10-10-10-10-|
E|-------------------------------------------------------------|

Chorus
g|---------------------------------------------------------------|
d|---------------------------------------------------------------|
a|---------------------------------------------------------------|
E|-8-8-8-8-8-8-8-8-8-8-8-8-8-8-8-8-5-5-5-5-5-5-5-5-5-5-5-5-5-5-5-|

g|---------------------------------------------------------------|
d|---------------------------------------------------------------| x2
a|-5-5-5-5-5-5-5-5-5-5-5-5-5-5-5-5-------------------------------|
E|---------------------------------3-3-3-3-3-3-3-3-3-3-3-3-3-3-3-|

Pre verse
Verse
Chorus
Pre verse
Outro (intro)

End on
g|----|
d|----|
a|----|
E|-8~-|