My Bloody Valentine - Sometimes Chords & Tabs

 

Sometimes Chords & Tabs

My Bloody Valentine Chords & Tabs

Version: 2 Type: Tab 0 ratings
1 star 2 stars 3 stars 4 stars 5 stars
comments

Sometimes Tab

   
Sometimes
by My Bloody Valentine
tabbed by JA

Tuning:
1/4 tone above DADGBe
1/4 tone below D#A#D#G#B#F
Trust me... listen to the cd...

Very simple. Good to practice singing and playing.

[ Tab from: http://www.guitartabs.cc/tabs/m/my_bloody_valentine/sometimes_tab_ver_2.html ]
  Part A
e :-------------------------------------|
B :-------------------------------------|
G :-------------------------------------|
D :--0--4--9--5--4--2--0--2--9--7--2--0-|
A :--0--4--9--5--4--2--0--2--9--7--2--0-|
D :--0--4--9--5--4--2--0--2--9--7--2--0-|


  Part B (after second verse and during most of ebow melody)
e :-------------------------------------|
B :-------------------------------------|
G :-------------------------------------|
D :--0--4--9--5--4--2--0--2--9--7--2--9-|
A :--0--4--9--5--4--2--0--2--9--7--2--9-|
D :--0--4--9--5--4--2--0--2--9--7--2--9-|
Comments