Mxpx - Wrecking Hotel Rooms Chords & Tabs

 

Wrecking Hotel Rooms Chords & Tabs

Mxpx Chords & Tabs

Version: 1 Type: Tab 0 ratings
1 star 2 stars 3 stars 4 stars 5 stars
comments

Wrecking Hotel Rooms Tab

Hello this is my 1st tab so it might be messed up but im about 95% sure this is right
if it doesnt work tune guitar in Eb which is eb, Bb, Gb, Db, Ab, Eb. please rate!
Artist:MxPx
Album:Panic
Song:Wrecking Hotel Rooms
Record Label:Side One Dummy

|~=Let it Ring|

Intro:
e|--------------------------------------------------------------------|
B|--------------------------------------------------------------------|
G|--------------------------------------------------------------------|
D|7-7-7-11-11-11-------------11-11-11-------11-11-11-9-9-9-11-9-7-----|
A|5-5-5-9 -9 -9 -7-7-7-9-9-9-9 -9 -9 -12-11-9 -9 -9 -7-7-7-9 -7-5-----| 
E|---------------5-5-5-7-7-7----------10-9 ---------------------------|
[ Tab from: http://www.guitartabs.cc/tabs/m/mxpx/wrecking_hotel_rooms_tab.html ]
Verse:
e|0~----0~----0~----0~----0~----0~----0~----0~------------------------|
B|4~----4~----4~----4~----4~----4~----4~----4~------------------------|
G|2~----2~----2~----2~----2~----2~----2~----2~------------------------|
D|0~----0~----0~----0~----0~----0~----0~----0~-------4----4----5----5-|
A|------------------------------------------------2-2--2-2--2-2--2-2--|
E|--------------------------------------------------------------------|

e|------------------------|
B|------------------------|
G|------------------------|
D|---4------4----5------5-|
A|------------------------|
E|2-2--2-3-3--2-2--2-3-3--|

Chorus:
e|--------------------------------------------------------------------|
B|--------------------------------------------------------------------|
G|--------------------------------------------------------------------|
D|7-7-7-11-11-11-------------11-11-11-------11-11-11-9-9-9-11-9-7-----|
A|5-5-5-9 -9 -9 -7-7-7-9-9-9-9 -9 -9 -12-11-9 -9 -9 -7-7-7-9 -7-5-----| 
E|---------------5-5-5-7-7-7----------10-9 ---------------------------|

song order
intro
verse
chorus
verse 
chorus
Comments