Mxpx - Wrecking Hotel Rooms Chords & Tabs

 

Wrecking Hotel Rooms Chords & Tabs

Mxpx Chords & Tabs

Version: 2 Type: Bass Tab

Wrecking Hotel Rooms Bass Tab

   
-------------------------------------------------------------------------------
                     WRECKING HOTEL ROOMS   MXPX 
-------------------------------------------------------------------------------

Tabbed by : Mike Dutton
Tuning: Standard 

Intro: x2
G|---------------------------------------------------------------|
D|---------------------------------------------------------------|
A|5-5-5-5-5-5-5-5------------------------------------------------|
E|---------------5-5-5-5-5-5-5-5-7-7-7-7-7-7-7-7-3-3-3-3-3-3-3-3-|  

Verse 
G|---------------------------------------------------------------|
D|---------------------------------------------------------------|
A|5-5-5-5-5-5-5-5------------------------------------------------| x2 
E|---------------5-5-5-5-5-5-5-5-7-7-7-7-7-7-7-7-3-3-3-3-3-3-3-3-|

G|--------------------------------------------|
D|----7-----7----------------7----7--9-9-9-9--|
A|5-5---5-5-------7----7-5-5--5-5---7-7-7-7-7-|
E|------------5-5--5-5------------------------|


Chorus 
G|---------------------------------------------------------------|
D|---------------------------------------------------------------|
A|5-5-5-5-5-5-5-5------------------------------------------------| x2 
E|---------------5-5-5-5-5-5-5-5-7-7-7-7-7-7-7-7-3-3-3-3-3-3-3-3-|


G|-------|
D|-------| x2
A|5------|
E|-5-7-3-|

Bridge x1
G|---------------------------------------------------------------|
D|---------------------------------------------------------------|
A|5-5-5-5-5-5-5-5------------------------------------------------|
E|---------------5-5-5-5-5-5-5-5-7-7-7-7-7-7-7-7-3-3-3-3-3-3-3-3-|

Verse 
[ Tab from: http://www.guitartabs.cc/tabs/m/mxpx/wrecking_hotel_rooms_btab_ver_2.html ]
G|---------------------------------------------------------------|
D|---------------------------------------------------------------|
A|5-5-5-5-5-5-5-5------------------------------------------------| x2
E|---------------5-5-5-5-5-5-5-5-7-7-7-7-7-7-7-7-3-3-3-3-3-3-3-3-|

G|--------------------------------------------|
D|----7-----7----------------7----7--9-9-9-9--|
A|5-5---5-5-------7----7-5-5--5-5---7-7-7-7-7-|
E|------------5-5--5-5------------------------|

Chorus

G|--------------------------------------------|
D|----7-----7----------------7----7--9-9-9-9--|
A|5-5---5-5-------7----7-5-5--5-5---7-7-7-7-7-| x2
E|------------5-5--5-5------------------------|

G|-------|
D|-------| x2
A|5------|
E|-5-7-3-|

Breakdown 
G|---------------------------------------------------------------|
D|---------------------------------------------------------------|
A|5-5-5-5-5-5-5-5------------------------------------------------|
E|---------------5-5-5-5-5-5-5-5-7-7-7-7-7-7-7-7-3-3-3-3-3-3-3-3-|

G|--------------------------|
D|--------------------------|
A|5-5-------5-5------5-5----|
E|------5-5------5-5----5-5-|

G|---------------------------------------------------------------|
D|---------------------------------------------------------------|
A|5-5-5-5-5-5-5-5------------------------------------------------| x2 
E|---------------5-5-5-5-5-5-5-5-7-7-7-7-7-7-7-7-3-3-3-3-3-3-3-3-|

Chorus
pause for the guitar 

G|----------------------------|
D|----------------------------|
A|5-5-5-5-5-5-5-5-5-5-5-5-5-5-|
E|----------------------------|

Outro x4

G|---------------------------------------------------------------|
D|---------------------------------------------------------------|
A|5-5-5-5-5-5-5-5------------------------------------------------|
E|---------------5-5-5-5-5-5-5-5-7-7-7-7-7-7-7-7-3-3-3-3-3-3-3-3-|

End on 

G|------|
D|------| 
A|5~~~~-|
E|------|