Mxpx - Well Adjusted Chords & Tabs

 

Well Adjusted Chords & Tabs

Mxpx Chords & Tabs

Version: 2 Type: Tab 0 ratings
1 star 2 stars 3 stars 4 stars 5 stars
comments

Well Adjusted Tab

-------------------------------------------------------------------------------
			     Well Adjusted - MxPx
-------------------------------------------------------------------------------

Tabbed by: SPIDERMAYN13
Email: Spidermayn13@aol.com  (Kevin A.)

This is the song off their newest album, "Before Everything and After".
It was also in the diet pepsi commercial at the mud concert
(the kid sees his dad and mom at the concert..."Hi Kevin!!!"...)

Tuning: Standard

     x  Mute note
     .  palm mute

Intro
e|---------------------------------------------------------------------------|
B|---------------------------------------------------------------------------|
G|---------------------------------------------------------------------------|
D|--5-5--x-x-x--5-5--x-x-x--5-5--x-x-x--5-5--x-x-x--5-5--x-x-x--5-5--x-x-x---|
A|--5-5--x-x-x--5-5--x-x-x--5-5--x-x-x--5-5--x-x-x--5-5--x-x-x--5-5--x-x-x---|
E|--3-3--x-x-x--3-3--x-x-x--3-3--x-x-x--3-3--x-x-x--3-3--x-x-x--3-3--x-x-x---|

e|---------------------------------------------------------------------------|
B|---------------------------------------------------------------------------|
G|-------------3-----------------3-3--x-x-x--8-8-x-x-x--8-8-x-x-x------------|
D|-5-5--x-x-x--3--3--5-5--x-x-x--3-3--x-x-x--8-8-x-x-x--6-6-x-x-x--5-5-x-x-x-|
A|-5-5--x-x-x--1--3--5-5--x-x-x--1-1--x-x-x--6-6-x-x-x--6-6-x-x-x--5-5-x-x-x-|
E|-3-3--x-x-x-----1--3-3--x-x-x------------------------------------3-3-x-x-x-|

e|-----------------------------------------------|
B|-----------------------------------------------|
G|-3-3-x-x-x---------------------------3---------|
D|-3-3-x-x-x--3-3-3-3-3-3-3-3-3-3-3-3--3--3------|
A|-1-1-x-x-x--3-3-3-3-3-3-3-3-3-3-3-3--1--3------|
E|------------1-1-1-1-1-1-1-1-1-1-1-1-----1------|
[ Tab from: http://www.guitartabs.cc/tabs/m/mxpx/well_adjusted_tab_ver_2.html ]
Riff 1
e|--------------------------------------------------------------|
B|--------------------------------------------------------------|
G|-------------------------------8-8-8-8-8-8-8-8-8-8-8-8--------|
D|-------5-5-5-5-5-5-8-8-8-8-8-8-8-8-8-8-8-8-8-8-8-8-8-8--------|   x 4
A|-------5-5-5-5-5-5-8-8-8-8-8-8-6-6-6-6-6-6-6-6-6-6-6-6--------|
E|-------3-3-3-3-3-3-6-6-6-6-6-6--------------------------------|
           "Am I the   one that's  going crazy..."

Verse (palm muted)
e|----------------------------------------------------|
B|----------------------------------------------------|
G|-------------------------------------8--8-8-8-------|
D|-8--8-8-8----7--7-7-7----5--5-5-5----8--8-8-8-------|   x4
A|-8--8-8-8----7--7-7-7----5--5-5-5----6--6-6-6-------|
E|-6--6-6-6----5--5-5-5----3--3-3-3-------------------|
   .  . . .    .  . . .    .  . . .    .  . . .           
    "i need a  room in a   mental      penitentiary..."

then:

e|---------------------------------------------------------------------------|
B|---------------------------------------------------------------------------|
G|---------------------------------------------------------------------------|
D|--8-8-8-8-8-8-8-8-8-8-8-8-5-5-5-5-5-5-5-5-5-5-5-5-5-5-5-5------------------|
A|--8-8-8-8-8-8-8-8-8-8-8-8-5-5-5-5-5-5-5-5-5-5-5-5-5-5-5-5------------------|
E|--6-6-6-6-6-6-6-6-6-6-6-6-6-3-3-3-3-3-3-3-3-3-3-3-3-3-3-3------------------|
     "yea yea yea...."

Chorus
e|---------------------------------------------------------------------------|
B|---------------------------------------------------------------------------|
G|--3-3-3-3-3-3-3-3-3-3-------------------------8-8-8-8-8-8-8-8-8-8----------|
D|--3-3-3-3-3-3-3-3-3-3--5-5-5-5-5-5-5-5-5-5-5--8-8-8-8-8-8-8-8-8-8----------|
A|--1-1-1-1-1-1-1-1-1-1--5-5-5-5-5-5-5-5-5-5-5--6-6-6-6-6-6-6-6-6-6----------|
E|-----------------------3-3-3-3-3-3-3-3-3-3-3-------------------------------|
    "Doctors say that    I'll be getting        off, real

e|-------------------------------------------------|
B|-------------------------------------------------|
G|-------------------------------------------------|
D|--3-3-3-3-3-3-3-3-3-3----------------------------| x2
A|--3-3-3-3-3-3-3-3-3-3----------------------------|
E|--1-1-1-1-1-1-1-1-1-1----------------------------|
    soon..."


Riff 1

Verse

Chorus

Intro

Chorus
===============================================================================
Comments