Mxpx - Well Adjusted Chords & Tabs

 

Well Adjusted Chords & Tabs

Mxpx Chords & Tabs

Version: 1 Type: Tab 0 ratings
1 star 2 stars 3 stars 4 stars 5 stars
comments

Well Adjusted Tab

Band: MXPX
Title: Well Adjusted
Album: Before Everything and After
Palm mute- x
Intro 
|------------------------------------------------|
|------------------------------------------------|
|---------------------------------------3--------|
|--55xxx55xxx55xxx55xxx55xxx55xxx55xxx--3-3------|
|--55xxx55xxx55xxx55xxx55xxx55xxx55xxx--1-3------|
|--33xxx33xxx33xxx33xxx33xxx33xxx33xxx----1------|

|------------------------------------------------|
|------------------------------------------------|
|------------88xxx88xxx-------33xxx-------3------|
|--55xxx88xxx88xxx88xxx--55xxx33xxx33333--3-3----|
|--55xxx88xxx66xxx66xxx--55xxx11xxx33333--1-3----|
|--33xxx66xxx------------33xxx-----11111----1----|


Verse
|----------------------|     |----------------------|
|----------------------|     |----------------------|
|----------888-888-----|     |----------------------|
|--555-888-888-888-----| x4  |-----------88---------| x3
|--555-888-666-666-----|     |--88-77-55-66---------|
|--333-666-------------|     |--66-55-33------------|
                             xxxxxxxxxxxx
|--------------------------------------|
|--------------------------------------|
|-------------------66666666-55555555--|
|----------77-8888--66666666-55555555--| x1
|-88-77-55-55-6666--44444444-33333333--|
|-66-55-33-----------------------------|
xxxxxxxxxxxx




Chorus
|---------------------------------------------------------|    |--------|
|---------------------------------------------------------|    |--------|
|------------------------------88888888--1010101010101010-|    |---3----|
|--88888888--1010101010101010--88888888--1010101010101010-| x2 |---3-3--| x1
|--88888888--1010101010101010--66666666--8-8-8-8-8-8-8-8--|    |---1-3--|
|--66666666--8-8-8-8-8-8-8-8------------------------------|    |-----1--|


Verse
|----------------------|     |----------------------|
|----------------------|     |----------------------|
|----------888-888-----|     |----------------------|
|--555-888-888-888-----| x4  |-----------88---------| x3
|--555-888-666-666-----|     |--88-77-55-66---------|
|--333-666-------------|     |--66-55-33------------|
                             xxxxxxxxxxxx
[ Tab from: http://www.guitartabs.cc/tabs/m/mxpx/well_adjusted_tab.html ]
|-------------------|  |---------------------|     |---------------------|
|-------------------|  |---------------------|     |---------------------|
|-------------------|  |--66666666-----888---|     |--66666666-55555555--|
|----------77-8888--|  |--66666666-888-888---| x2  |--66666666-55555555--| x1
|-88-77-55-55-6666--|  |--44444444-888-666---|     |--44444444-33333333--|
|-66-55-33----------|  |-----------666-------|     |---------------------|
xxxxxxxxxxxxxxxx"yeah yeah yeah yeah"


Chorus
|---------------------------------------------------------|    |---------|
|---------------------------------------------------------|    |---------|
|------------------------------88888888--1010101010101010-|    |-3---3---|
|--88888888--1010101010101010--88888888--1010101010101010-| x4 |-3-3-3-3-| x1
|--88888888--1010101010101010--66666666--8-8-8-8-8-8-8-8--|    |-1-3-1-3-|
|--66666666--8-8-8-8-8-8-8-8------------------------------|    |---1---1-|


Bridge - I just let these chords ring
|--------------------------------------|
|--------------------------------------|
|------8~~-7~~-------------------------|
|--8~~-8~~-7~~-------------------------|
|--8~~-6~~-5~~-------------------------|
|--6~~---------------------------------|

Bridge Cont'd - High Guitar part during "Whoa-oh-oh-oh" [optional]
|--------------------------------------|
|--18-15-13-11------18-15-13-11-13-----|
|--------------------------------------|
|--------------------------------------|
|--------------------------------------|
|--------------------------------------|

|------------------------------------------------|
|------------------------------------------------|
|---------------------------------------3--------|
|--55xxx55xxx55xxx55xxx55xxx55xxx55xxx--3-3------|
|--55xxx55xxx55xxx55xxx55xxx55xxx55xxx--1-3------|
|--33xxx33xxx33xxx33xxx33xxx33xxx33xxx----1------|

Chorus
|---------------------------------------------------------|    |-----|
|---------------------------------------------------------|    |-----|
|------------------------------88888888--1010101010101010-|    |-3---|
|--88888888--1010101010101010--88888888--1010101010101010-| x4 |-3-3-| x1
|--88888888--1010101010101010--66666666--8-8-8-8-8-8-8-8--|    |-1-3-|
|--66666666--8-8-8-8-8-8-8-8------------------------------|    |---1-|


Outro
|------------------------------------------------|
|------------------------------------------------|
|------------88xxx88xxx-------33xxx-------3------|
|--55xxx88xxx88xxx88xxx--55xxx33xxx33xxx--3-3----|
|--55xxx88xxx66xxx66xxx--55xxx11xxx33xxx--1-3----|
|--33xxx66xxx------------33xxx-----11xxx----1----|

|------------------------------------------------|
|------------------------------------------------|
|------------88xxx88xxx-------33xxx-------3------|
|--55xxx88xxx88xxx88xxx--55xxx33xxx33333--3-3-5--|
|--55xxx88xxx66xxx66xxx--55xxx11xxx33333--1-3-5--|
|--33xxx66xxx------------33xxx-----11111----1-3--|
Comments