Mxpx - Under Lock And Key Chords & Tabs

 

Under Lock And Key Chords & Tabs

Mxpx Chords & Tabs

Version: 1 Type: Tab 0 ratings
1 star 2 stars 3 stars 4 stars 5 stars
comments

Under Lock And Key Tab

Cd:  Slowly Going The Way Of the Buffalo
By: Herrera,Mike (From Mxpx)
Song title: Under lock and key


[ Tab from: http://www.guitartabs.cc/tabs/m/mxpx/under_lock_and_key_tab.html ]
intro.
e--------------------------------
B-------------------------------
G-------------------------------
D-8-----4----------------------
A-6- 8--2-4-6-8-10-----------
E----6---- 2-4-6-8------------
Verse
e-------------------------------
B------------------------------
G------------------------------
D--8---------------------------
A--6--6--8-10--6-------------
E------4--6-8---4-------------
Chorus
e-------------------------------
B------------------------------
G------------------------------
D------5-----------------------
A---5-3--6--8-----------------
E---3----4---6-----------------
interlude
e--------------------------------
B-------------------------------
G-------------------------------
D---8---------------------------
A---6--6--5--6-----------------
E-------4--3--8-----------------
Comments