Mxpx - Tomorrow Is Another Day Chords & Tabs

 

Tomorrow Is Another Day Chords & Tabs

Mxpx Chords & Tabs

Version: 1 Type: Bass Tab 0 ratings
1 star 2 stars 3 stars 4 stars 5 stars
comments

Tomorrow Is Another Day Bass Tab

Song: tomarrow is another day
Band: mxpx
Album: slowly going the way of the buffalo
tabbed by: DANGEROUS DAVE DISCOUNT

[ Tab from: http://www.guitartabs.cc/tabs/m/mxpx/tomorrow_is_another_day_btab.html ]
  this is for all the vesus you will know
g:-------------------------------------------------------------- 
d:---------------------------------------------------------------
a:-2-2-2-2---------4-4-4-4-0-0-0-0-----------------------------------------
e:---------2-2-2-2----------------------------------------------------
   chorus
g:---------------------------------------------
D:---------------------------------------------
A:-22----4444-0000--22----4444-0000-4444-0000-
e:----22---------------22---------------------
    bass thing you will know
a:-2-----------4-----0---------------
e:-------2------------2--------------
  thats that hope you get it its not that hard 
Comments