Mxpx - Time Brings Change Chords & Tabs

 

Time Brings Change Chords & Tabs

Mxpx Chords & Tabs

Version: 1 Type: Bass Tab 0 ratings
1 star 2 stars 3 stars 4 stars 5 stars
comments

Time Brings Change Bass Tab

MxPx
Song:      Time Brings Change
Album:     Pokinatcha
Tabbed by: BassD
                                >=play a couple of time
				h=Hammer on
			        p=Pull off
Intro/Verse x4
G|------------|
D|------------|
A|----5>-6>---|
E|-6>---------|

   x4
G|------------------|
D|------------------|
A|-----8-6-5---5-6--|
E|-4-4-------4------|

   x4
G|-----------------------------------|
D|-------------------8-------8h10p8--|
A|-5>-6--6-6-6-6-6-6---6-6-6---------|
E|-----------------------------------|

Verse x4
G|------------|
D|------------|
A|----5>-6>---|
E|-6>---------|

   x4
G|------------------|
D|------------------|
A|-----8-6-5---5-6--|
E|-4-4-------4------|
[ Tab from: http://www.guitartabs.cc/tabs/m/mxpx/time_brings_change_btab.html ]
   x4
G|-----------------------------------|
D|-------------------8-------8h10p8--|
A|-5>-6--6-6-6-6-6-6---6-6-6---------|
E|-----------------------------------|

Chorus x4
G|-----------|
D|-----------|
A|----5>-6>--|
E|-6>--------|

   x4
G|----------------------------|
D|----------------------------|
A|----5-6>-5-8-8-8-6-6-6-5-5--|
E|-6>-------------------------|

End with
G|-----------------------------------------|
D|-----------------------------------------|
A|----5>-6>-----5>-6>-----5>-6>-----5>-6>--|
E|-6>--------6>--------6>--------6>--------|

G|------------------------|
D|------------------------|
A|-----8-6-5---5-6--------|
E|-4-4-------4-----4ring--|

Kick ass song.Hope you MxPx fans out there will like it.
Email= rancid_ska@hotmail.com

===============================================================================

Comments