Mxpx - The Theme Fiasco Chords & Tabs

 

The Theme Fiasco Chords & Tabs

Mxpx Chords & Tabs

Version: 1 Type: Bass Tab 0 ratings
1 star 2 stars 3 stars 4 stars 5 stars
comments

The Theme Fiasco Bass Tab

THE THEME FIASCO - MxPx

By: Matt V

In the Live version Mike plays this solo:
G|---------------------------------------------------------------55--44--------------|
D|-------88-77------77-55----------------55------55-77------------55-------77--------|
A|---77----------77-----------77-55-66------77--------------------------55--------77-|  (x2)
E|-----------------------------------------------------------------------------------|
[ Tab from: http://www.guitartabs.cc/tabs/m/mxpx/the_theme_fiasco_btab.html ]
In the Slowly Going The Way Of The Buffalo version he plays this solo:
G|------------------------------------------------------55--44--------------------|
D|-------88-77------77-55----------------55------55-77----------55-------77-------|
A|---77----------77-----------77-55-66------77---------------------55--------77---|
E|--------------------------------------------------------------------------------|

G|------------------------------------------------55-44---------------------|
D|------88-77----77-55----------------55-77--------------55--------77-------|
A|--77---------77--------77-55-66-77-------------------------55-------77----|
E|--------------------------------------------------------------------------|

i submitted this again coz i typed it out wrong the first time

m_vrettas@hotmail.com
Comments