Mxpx - The Next Big Thing Chords & Tabs

 

The Next Big Thing Chords & Tabs

Mxpx Chords & Tabs

Version: 2 Type: Tab 0 ratings
1 star 2 stars 3 stars 4 stars 5 stars
comments

The Next Big Thing Tab

   
Not too sure that it's PERFECT but I gave it a shot.

Intro
e|--------------|    |----------------|
B|--------------|    |----------------|
G|---2-2-4-4-9-9|    |-44444444444444-|
D|-2-2-2-4-4-9-9| 3x |-44444444444444-|
A|-2-0 0-2-2-7-7|    |-22222222222222-|
E|-0------------|    |----------------|

To enter the verse play ^^^^^^^^^^^

Verse
e|-------------------------------------------------------|
B|-------------------------------------------------------|
G|--------222222-444444444444--------222222-444444444444-|
D|-222222-222222-444444444444-222222-222222-444444444444-|
A|-222222-000000-222222222222-222222-000000-222222222222-|
E|-000000---------------------000000---------------------|

Pre Chorus
e|------------------------------------------------------|
B|------------------------------------------------------|
G|-2-2-2-2-2-2-2-2-----------6-6-6-6-7-7-7-7-4444444444-|
D|-2-2-2-2-2-2-2-2-222222222-6-6-6-6-7-7-7-7-4444444444-|
A|-0-0-0-0-0-0-0-0-222222222-4-4-4-4-5-5-5-5-2222222222-|
E|-----------------000000000----------------------------|
[ Tab from: http://www.guitartabs.cc/tabs/m/mxpx/the_next_big_thing_tab_ver_2.html ]
Chorus
e|--------------|    |----------------|
B|--------------|    |----------------|
G|---2-2-4-4-9-9|    |-44444444444444-|
D|-2-2-2-4-4-9-9| 3x |-44444444444444-|
A|-2-0-0-2-2-7-7|    |-22222222222222-|
E|-0------------|    |----------------|

Verse (same as the first)
Pre Chorus
Chorus

Bridge - second guitar plays chorus
While first guitar...
e|----------------------------------------------|
B|----------------------------------------------|
G|-99998866444466-99998866444668-99998866444466-|
D|----------------------------------------------|
A|----------------------------------------------|
E|----------------------------------------------|

Right after play...
e|-----------------|
B|-----------------|
G|-9-4-8-11-6-8-9--|
D|-----------------|
A|-----------------|
E|-----------------|

Then...

e|-------------------------|    |----------------|
B|-------------------------|    |----------------|
G|---9-----9-----9---8---8-|    |---9-----9------|
D|-7---7-6---6-9---9---9---| 3x |-7---7-6---6-9~-|
A|-------------------------|    |----------------|
E|-------------------------|    |----------------|

Chorus 2x (first guitar does it's solo thing)

Outro (first guitar still does it's solo..)
e|---------------|  |------------------|
B|---------------|  |------------------|
G|---2-2-4-4-9-9-|  |-666666-222222----|
D|-2-2-2-4-4-9-9-|3x|-666666-222222-2~-|  (repeat whole thing twice)
A|-2-0-0-2-2-7-7-|  |-444444-000000-2~-|
E|-0-------------|  |------------------|
'
Comments