Mxpx - Teenage Politics Chords & Tabs

 

Teenage Politics Chords & Tabs

Mxpx Chords & Tabs

Version: 3 Type: Tab 0 ratings
1 star 2 stars 3 stars 4 stars 5 stars
comments

Teenage Politics Tab

   
MxPx
Teenage Politics!
Tabbed by Kyle



I think it was high time for a decent tab of this song.

I don't know if this is exactly right, but I know that it is pretty freakin' close.
The scratch in the intro is optional. Anything in brackets is optional.

Intro

E||--------------------------------------------------------------------------------||
B||--------------------------------------------------------------------------------||
G||--------8-8-7-5-7-------------8-8-7-5-7----5-5--8-8-7-5-7-----------8-8-7-8-10--||
D||-8-x-8--8-8-7-5-7----5-x-5----8-8-7-5-7----5-5--8-8-7-5-7----3-x-3--8-8-7-8-8---||
A||-8-x-8--6-6-5-3-5----5-x-5----6-6-5-3-5----3-3--6-6-5-3-5----3-x-3--6-6-5-6-8---|| 
E||-6-x-6---------------3-x-3-----------------------------------1-x-1--------------||

2 TIMES!

A#             G
No I'm not mad, but I think they forget
C                                F  
What it's like and how hard it is to be a teenager!
A#                        G
This is a new day and age, We read a different book
C                             F
Where Elvis ain't the rage and polyester ain't the look

E||-----------------------------------------------------------||
B||-----------------------------------------------------------||
G||--3-3--x-x-x--3-3--x-x-x-x--3-3--x-x-x--3-3--x-x-x-x--3-3--||
D||--3-3--x-x-x--3-3--x-x-x-x--3-3--x-x-x--3-3--x-x-x-x--3-3--||
A||--1-1--x-x-x--1-1--x-x-x-x--1-1--x-x-x--1-1--x-x-x-x--1-1--||
E||-----------------------------------------------------------||

A#                       G
And will we change at all when we get old?
C                      F
Or will we be the same? Never do what we're told
A#                       G 
Well that depends on you, are you doing the right thing?
C                              F                            
It's not about control, it's about you and me and understanding

E||-----------------------------------------------------------||
B||-----------------------------------------------------------||
G||--3-3--x-x-x--3-3--x-x-x-x--3-3--x-x-x--3-3--x-x-x-x--3-3--||
D||--3-3--x-x-x--3-3--x-x-x-x--3-3--x-x-x--3-3--x-x-x-x--3-3--||
A||--1-1--x-x-x--1-1--x-x-x-x--1-1--x-x-x--1-1--x-x-x-x--1-1--||
E||-----------------------------------------------------------||

C            F
Teenage politics, it's too confusing!
C                E#
Politics Shmolotics, it's too confusing!
C            F
Teenage politics, it's too confusing!
C                E#
Politics Shmolotics, it's too confusing!
[ Tab from: http://www.guitartabs.cc/tabs/m/mxpx/teenage_politics_tab_ver_3.html ]
E||--------------------------------------------------------------------------------||
B||--------------------------------------------------------------------------------||
G||--------8-8-7-5-7-------------8-8-7-5-7----5-5--8-8-7-5-7-----------8-8-7-8-10--||
D||-8-x-8--8-8-7-5-7----5-x-5----8-8-7-5-7----5-5--8-8-7-5-7----3-x-3--8-8-7-8-8---||
A||-8-x-8--6-6-5-3-5----5-x-5----6-6-5-3-5----3-3--6-6-5-3-5----3-x-3--6-6-5-6-8---||
E||-6-x-6---------------3-x-3-----------------------------------1-x-1--------------||

2 Times!				


A# sus          G sus
Is it time again to disagree?
C sus                           F sus
About anything, everything, and what's on TV
A# sus               G sus
It's a vicious circle, never ending
C sus             F sus
A linear equation, worldly extending

E||-----------------------------------------------------------||
B||-----------------------------------------------------------||
G||--3-3--x-x-x--3-3--x-x-x-x--3-3--x-x-x--3-3--x-x-x-x--3-3--||
D||--3-3--x-x-x--3-3--x-x-x-x--3-3--x-x-x--3-3--x-x-x-x--3-3--||
A||--1-1--x-x-x--1-1--x-x-x-x--1-1--x-x-x--1-1--x-x-x-x--1-1--||
E||-----------------------------------------------------------||

C              F
Teenage politics, it's too confusing!
C                E#
Politics Shmolotics, it's too confusing!
C              F
Teenage politics, it's too confusing!
C                E#
Politics Shmolotics, it's too confusing!

E||--------------------------------------------------------------------------------||
B||--------------------------------------------------------------------------------||
G||--------8-8-7-5-7-------------8-8-7-5-7----5-5--8-8-7-5-7-----------8-8-7-8-10--||
D||-8-x-8--8-8-7-5-7----5-x-5----8-8-7-5-7----5-5--8-8-7-5-7----3-x-3--8-8-7-8-8---||
A||-8-x-8--6-6-5-3-5----5-x-5----6-6-5-3-5----3-3--6-6-5-3-5----3-x-3--6-6-5-6-8---||
E||-6-x-6---------------3-x-3-----------------------------------1-x-1--------------||
				
A# SUS
No I'll Never be like you!

E||-----------------------------------------------------------------||
B||---------------------------------------4-------------------------||
G||------------------------------5-s--------5----(5)----------------||
D||-5-s--------------------------5-u----------5--(5)--3----3--3-3-3-||
A||-5-u--------------------------3-s-------------(3)--3----3--3-3-3-||
E||-3-s-----------------------------------------------1----1--1-1-1-||
    I'll never ever be like you! Oh, no!

A# sus
No I'll never be like you

E||-------------------------------------------------------------------||
B||---------------------------------------4---------------------------||
G||------------------------------5-s--------5----(5)------8----7------||
D||-5-s--------------------------5-u----------5--(5)--3---8----7----8-||
A||-5-u--------------------------3-s-------------(3)--3---6----5----8-||
E||-3-s---------------------------------------------1---------------6-||
    I'll never ever be like you! Oh, no!                Just like you!
Comments