Mxpx - Teenage Politics Chords & Tabs

 

Teenage Politics Chords & Tabs

Mxpx Chords & Tabs

Version: 3 Type: Bass Tab 0 ratings
1 star 2 stars 3 stars 4 stars 5 stars
comments

Teenage Politics Bass Tab

i doubt this is right since i dont play bass but i tryed to come up w/ an easier
way to play it so our band could cover it cuz our bass player sucks. this is what i got:

Intro:
-------------------------------------------------------
-------------------------------------------------------
-1-1--5-5-4-4------5-5-4-4--3-3--5-5-4-4------5-5-4-4--
--------------3--3-----------------------1--1----------

---------------------------------------------------------
---------------------------------------------------------
--1-1--5-5-4-4--------5-5-4-4--3-3--5-5-4-4------5-4-5-7-
----------------3--3-----------------------1--1----------
[ Tab from: http://www.guitartabs.cc/tabs/m/mxpx/teenage_politics_btab_ver_3.html ]
verse
----------------------------------------------
----------------------------------------------
--1----------3----------1----------3----------
--------3----------1----------3----------1----

Other thing
-------------------------------------------------------
-------------------------------------------------------
--3--3--3--3-----------------3--3--3--3----------------
-----------------1--1--1--1----------------1--1--1--1--

verse
------------------------------------------------------------------------------
------------------------------------------------------------------------------
--1-1-1-1-1-1-1-1-----------------------3-3-3-3-3-3-3-3-----------------------
-----------------------3-3-3-3-3-3-3-3-----------------------1-1-1-1-1-1-1-1--
Comments