Mxpx - Swing Set Girl Chords & Tabs

 

Swing Set Girl Chords & Tabs

Mxpx Chords & Tabs

Version: 2 Type: Tab 0 ratings
1 star 2 stars 3 stars 4 stars 5 stars
comments

Swing Set Girl Tab

   
#----------------------------------PLEASE NOTE--------------------------------#
#This file is the author's own work and represents their interpretation of the#
#song. You may only use this file for private study, scholarship, or research.#
#-----------------------------------------------------------------------------#
#-- File created with Instab - http://www.pconline.com/~smcarey/instab.html --#
#-----------------------------------------------------------------------------#

Author/Artist: Mxpx
Title: Swing Set Girl
Album: Let It Happen
Transcribed by: Kevin Green
Email: rdg@waveone.net

Intro:
[ Tab from: http://www.guitartabs.cc/tabs/m/mxpx/swing_set_girl_tab_ver_2.html ]
 A#5  E5  F5 A#5 E5 F5   (x4)
------------------------
------------------------
------------------------
--8---9---10--8--9--10--
--8---9---8---8--9--10--
--6---7---8---6--7--8---
  

Verse:
------------------------
------------------------
--5--------5------------
--5--5--7--5------------
--3--5--7--3------------
-----3--5---------------
 C5  G5 A5 C5

Chorus: 

------------------------
------------------------
--------5---------------
--5--7--5---------------
--5--7--3---------------
--3--5------------------
 G5  A5 C5              
Comments