Mxpx - Swing Set Girl Chords & Tabs

 

Swing Set Girl Chords & Tabs

Mxpx Chords & Tabs

Version: 1 Type: Tab 0 ratings
1 star 2 stars 3 stars 4 stars 5 stars
comments

Swing Set Girl Tab

   
a.)

E --------------------------------------------------------------------------------------------------
B --------------------------------------------------------------------------------------------------
G ------5------------5---------------------------------------5------------5-5----5---5---5----------
D ------5------------5---5------------5-----3------------3---5------------5-5----5---5---5----------
A ------3------------3---5------------5-----3------------3---3------------3-3----3---3---3----------
E -----------------------3------------3-----1------------1------------------------------------------

b.)

E --------------------------------------------------------------------------------------------------
B --------------------------------------------------------------------------------------------------
G ------5-------------5---5---5---5---5---5---------------------------------------------------------
D ------5------5------5---5---5---5---5---5---------------------------------------------------------
A ------3------5------3---3---3---3---3---3---------------------------------------------------------
E -------------3------------------------------------------------------------------------------------

c.) 1***                                                c.) 2***
[ Tab from: http://www.guitartabs.cc/tabs/m/mxpx/swing_set_girl_tab.html ]
E -------------------------------------|  |---------------------------------------------------------
B -------------------------------------|  |---------------------------------------------------------
G ----------0--------------------------|  |---------------------------------------------------------
D ---------------3---2---3---2---0-----|  |-------------------2---3---2---0-------------------------
A ------3------------------------------|  |------3--------------------------------------------------
E -------------------------------------|  |---------------------------------------------------------

d.)

E --------------------------------------------------------------------------------------------------
B --------------------------------------------------------------------------------------------------
G ------------------------------------------------------------5------5------5--5--5--5--------------
D ------5------5------5--5--5------3------3------3--3--3------5------5------5--5--5--5--------------
A ------5------5------5--5--5------3------3------3--3--3------3------3------3--3--3--3--------------
E ------3------3------3--3--3------1------1------1--1--1--------------------------------------------

***NOTE: For every time that the section c is played, c1 is played 3 times, then c2 is 
                   played once. You'll understand it once you hear it.

Order:

A x 2
B x 4
C x 2
A x 2
B x 4
C x 4
B x 4
d 
Comments