Mxpx - Summer Of Chords & Tabs

 

Summer Of Chords & Tabs

Mxpx Chords & Tabs

Version: 1 Type: Tab 0 ratings
1 star 2 stars 3 stars 4 stars 5 stars
comments

Summer Of Tab

TabCrawler - m/mxpx/mxpx-summer-of-69-ver3.txt  
                  HomeNew TabsGuitar Forums Cool!LessonsICQ BuddiesPremier Sites


              Sun Dec 9, 2001 TabCrawler.Com- Use It To Play Something...


Artist - MxPx
Song Title - Summer Of  '69
Tabbed By: Matt Lind
Original Artist: Bryan Adams


Intro:
||---------------------------33xxxxxxxxxx--------------3 [Let it ring]
||-33xxxxxxxxxx-33xxxxxxxxxx-55xxxxxxxxxx-33xxxxxxxxxx-5 [Let it ring]
||-55xxxxxxxxxx-55xxxxxxxxxx-55xxxxxxxxxx-55xxxxxxxxxx-5 [Let it ring]
||-55xxxxxxxxxx-55xxxxxxxxxx--------------55xxxxxxxxxx----------------
||--------------------------------------------------------------------
||--------------------------------------------------------------------
                        "I got my..."

Verse:
Strum:
||---------------3 [Let ring]----------------3 [Let ring]
||-3 [Let ring]--5 [Let ring]--3 [Let ring]--5 [Let ring]
||-5 [Let ring]--5 [Let ring]--5 [Let ring]--5 [Let ring]
||-5 [Let ring]----------------5 [Let ring]--------------
||-------------------------------------------------------
||-------------------------------------------------------
  "Me and...."
[ Tab from: http://www.guitartabs.cc/tabs/m/mxpx/summer_of_tab.html ]
Chorus:
Strum:
||-5-5-5-5--3-3-3-3--9 -9 -9 -9---1-1-1-1--5-5-5-5--3-3-3-3-- 9 -9 -9 
-9--1-1-1-1--5-5-5-5--3 [Let ring]
||-7-7-7-7--5-5-5-5--10-10-10-10--3-3-3-3--7-7-7-7--5-5-5-5--10-10-10-10--3-3-3-3--7-7-7-7--5 
[Let ring]
||-7-7-7-7--5-5-5-5--10-10-10-10--3-3-3-3--7-7-7-7--5-5-5-5--10-10-10-10--3-3-3-3--7-7-7-7--5 
[Let ring]
||------------------------------------------------------------------------------------------------------
||------------------------------------------------------------------------------------------------------
||------------------------------------------------------------------------------------------------------
"Oh when...."

Riff:

||--------------------------------
||--------------------------------
||--------------------------------
||-5-7-10-9-7-9-------------------
||-------------------5-7-10-9-7-9-
||--------------------------------


Bridge:

||-0-0-0-0--5-5-5-5--7-7-7-7--5-5-5-5--0-0-0-0--5-5-5-5--7-7-7-7 [Let Ring]
||-2-2-2-2--7-7-7-7--9-9-9-9--7-7-7-7--2-2-2-2--7-7-7-7--9-9-9-9 [Let Ring]
||-2-2-2-2--7-7-7-7--9-9-9-9--7-7-7-7--2-2-2-2--7-7-7-7--9-9-9-9 [Let Ring]
||-------------------------------------------------------------------------
||-------------------------------------------------------------------------
||-------------------------------------------------------------------------
"We were...."

Back to Directory

Comments