Mxpx - Summer Of 6 Chords & Tabs

 

Summer Of 6 Chords & Tabs

Mxpx Chords & Tabs

Version: 1 Type: Bass Tab 0 ratings
1 star 2 stars 3 stars 4 stars 5 stars
comments

Summer Of 6 Bass Tab

MxPx "summer of '69"

Verse x2
g---------------------------------------------|
d---------------------------------------------|
a-3---3---------------------------------------|
e---3----3------------------------------------|

Chorus
g---------------------------------------------|
d---------------------------------------------|
a-----3-------3-------------------------------|
e-5-3---1-5-3---1-5-3-------------------------|
[ Tab from: http://www.guitartabs.cc/tabs/m/mxpx/summer_of_6_btab.html ]
Chorus end
g---------------------------------------------|
d---------------------------------------------|
a---3-----------------------------------------|
e-3---3---------------------------------------|

Bridge
g---------------------------------------------|
d---------------------------------------------|
a---3-------3---3---3-------------------------|
e-1---3-5-1---3---3---3-----------------------|

Last Chorus
g---------------------------------------------|
d---------------------------------------------|
a---3---3-------------------------------------|
e-3---3---------------------------------------|

that's it. just stay on those couple notes (c,g,f,a) and it's the whole
song. send any love letters to brettromero@hotmail.com
Comments