Mxpx - Southbound Chords & Tabs

 

Southbound Chords & Tabs

Mxpx Chords & Tabs

Version: 3 Type: Tab 0 ratings
1 star 2 stars 3 stars 4 stars 5 stars
comments

Southbound Tab

   
Song:Southbound
Band:MxPx
Album:Let It Happen(this song is also on Life in General, but my tab right here is of the one on Let It Happen)
ok here it goes........

standard tuning
on the intro hold the 7th fret on the 6th string, hit it, then slide into 5, then starting palm muting the power chords
chord legend:
E--G-A-C-D-F#-|
B-------------|
G------5-7----|
D--5-7-5-7-4--|
A--5-7-3-5-4--|
E--3-5-----2--|

[ Tab from: http://www.guitartabs.cc/tabs/m/mxpx/southbound_tab_ver_3.html ]
verse 1:
/G(pm)A(pm)D(pm)
G(pm)A(pm)D
chorus:
C,D,G
C,D,G
C,D,G
C,D,G
C(pm)D(pm)
interlude:
G,A,C
G,A,C,D
G,A,C
G,A,C,D
on the part right before the verse,listen to the song figure out the F# slide thing:
G(pm)F#/G(pm)
verse 2:
F#/G(pm)A(pm)D(pm)
G(pm)A(pm)D
chorus:
C,D,G
C,D,G
C,D,G
C,D,G
C(pm)D(pm)
interlude:
G,A,C
G,A,C,D
G,A,C
G,A,C,D
for the solo I have put it into different parts. it should be easy to figure out, just follow the order at the end:
     Riff 1
E---------------------------------|
B---------------------------------|
G-----------------------4h5-4-----|
D--0-5-4-5-7-5---7-5-7--------7---|2x
A--------------3------------------|
E---------------------------------|
     Riff 2
E---------------------------------|
B---------------------------------|
G----7---5--4h5-4-----------------|
D--5---5----------7---------------|2x
A---------------------------------|
E---------------------------------|
     Riff 3
E----------------------------------|
B----------------------------------|
G----7---5--4h5-4---------4-5-4----|
D--5---5----------5-7---7-------5-7|
A----------------------------------|
E----------------------------------|

Order of Solo:
Riff 1
Riff 2
Riff 3
Riff 2
Riff 3
Riff 1

End on D--5-----|
(or)
       G--0-----|

that's it. pretty easy song to play. the solo is fun to play, and the rest is pretty easy if you can get palm muting up and down good. c-ya l8er
zachzeller@earthlink.net
Comments