Mxpx - Self Serving With A Purpose Chords & Tabs

 

Self Serving With A Purpose Chords & Tabs

Mxpx Chords & Tabs

Version: 1 Type: Bass Tab 0 ratings
1 star 2 stars 3 stars 4 stars 5 stars
comments

Self Serving With A Purpose Bass Tab

MxPx
Self Serving With A Purpose
tabbed by: intense@westol.com

Intro:
---------------------------------------
---------------------------------------
-------------------------5-5-5---------
-5-5-5-5-5-5-3-3-3-3-3-3-------3-3-4-5-

Verse:
-------------------------------------------------
-------------------------------------------------
-------------------------5-5-5-5-5-5-------------
-5-5-5-5-5-5-3-3-3-3-3-3-------------5-5-5-5-5-5-

Chorus:
-------------------------------------------------
-------------------------------------------------
-------------5-5-5-5-5-5-------------------------
-3-3-3-3-3-3-------------5-5-5-5-5-5-5-5-5-5-5-5-

2nd verse:
----------------------------------------------------------------------------
----------------------------------------------------------------------------
------5-5-5-5-5-5-----------------------------------5-5-5-5-5-5-------------
-5--3-------------5-5-5-5-5-5-5-5-5-5-5-3-3-3-3-3-3-------------5-5-5-5-5-5-
[ Tab from: http://www.guitartabs.cc/tabs/m/mxpx/self_serving_with_a_purpose_btab.html ]
Bridge type thing:
---------------------------------------------------------------------------
---------------------------------------------------------------------------
-5-5-5-5-5-5-5-5-5-5-5-5-5-5-5-5-5-5-5-5-----------------------------------
-----------------------------------------5-5-5-5-5-5-5-5-5-5-5-3-3-3-3-3-3-

----------------------------------------------------------------------------
----------------------------------------------------------------------------
------------------------------------------------------------5-5-5-5---------
-3-3-3-3-3-3-3-3-3-3-3-3-3-3-3-3-5-5-5-5-5-5-5-5--3-3-3-3-----------5-5-5-5-

-------------------------------------------------------------------------
-------------------------------------------------------------------------
-----------------------5-5-5-5---------------------------------5-5-5-5---
---5-5-5-5---3-3-3-3-------------5-5-5-5---5-5-5-5---3-3-3-3-------------

-------------------------------------------------------------------------
-------------------------------------------------------------------------
-------------------------------5-5-5-5-------------------5-5-5-5-5-5-5-5-
-5-5-5-5---5-5-5-5---3-3-3-3-------------5-5-5-5-5-5-5-5-----------------

Outro:
-----------------------------
-----------------------------
-5-5-5-5-------5-5-5-5-------
---------3-3-3---------5-5-5-


Comments