Mxpx - Scooby Doo Where Are You Chords & Tabs

 

Scooby Doo Where Are You Chords & Tabs

Mxpx Chords & Tabs

Version: 3 Type: Tab 0 ratings
1 star 2 stars 3 stars 4 stars 5 stars
comments

Scooby Doo Where Are You Tab

Band: MXPX
Song: Scooby Doo, Where Are You?
Album: Scooby Doo movie soundtrack
Tabbed by: Joel Gomez

~ Let ring
> Strum
p.m. Palm Mute

Drum Roll...

e|--------------------------------------------------------------|
B|--------------------------------------------------------------|
G|--------9-9---------------------------------------------------|
D|--9~~~--9-9--9~~~---------------------------------------------|
A|--9~~~--7-7--9~~~---------------------------------------------|
E|--7~~~-------7~~~---------------------------------------------|
do that a few times

then...
e|--------------------------------------------------------------|
B|--------------------------------------------------------------|
G|--9-9-----9-----9-----9--11>----------------------------------|
D|--9-9--7--9--7--9--7--9--11>----------------------------------|
A|--7-7--7--7--7--7--7--7--9>-----------------------------------|
E|-------9-----9-----9------------------------------------------|
[ Tab from: http://www.guitartabs.cc/tabs/m/mxpx/scooby_doo_where_are_you_tab_ver_3.html ]
verse
e|--------------------------------------------------------------|
B|---------------------------------7----------------------------|
G|--4------------6-----------------6-------------4--------------|
D|--4------------6-----------------4-------------4--------------|
A|--2------------4-------------------------------2--------------|
E|--------------------------------------------------------------|
  |.............................p.m............................|

Play that 2x palm muted, then another 2 without.

Break Riff
e|--------------------------------------------------------------|
B|--------------------------------------------------------------|
G|----x-9>/11-----x>--------------------------------------------|
D|--9-x-9>/11--99-x>--------------------------------------------|
A|--9-x-7>/9---99-x>--------------------------------------------|
E|--7-x--------77-x>--------------------------------------------|

Solo
e|--------------------------------------------------------------|
B|--4--2--0--0--2--4-----------4-4--2--0------------------------|
G|--------------------1-----------------------------------------|
D|-----------------------4-4-4----------------------------------|
A|--------------------------------------------------------------|
E|--------------------------------------------------------------|

e|--------------------------------------------------------------|
B|--4--2--0--0--2--4--5--------4-4--2--0------------------------|
G|-----------------------4-4-4----------------------------------|
D|--------------------------------------------------------------|
A|--------------------------------------------------------------|
E|--------------------------------------------------------------|

That's pretty much it, if you have any questions email me at hurleyloser@msn.com
Comments