Mxpx - Scooby Doo Where Are You Chords & Tabs

 

Scooby Doo Where Are You Chords & Tabs

Mxpx Chords & Tabs

Version: 2 Type: Tab 0 ratings
1 star 2 stars 3 stars 4 stars 5 stars
comments

Scooby Doo Where Are You Tab

mattyb-------check out westbound!!!!!!!!!!!!
www.newmusiccanada.com

Scooby Doo, Where Are you??
by MxPx

Intro
--------------------------
--------------------------
---44--------44----66-4-6-
-2-44-2---22-44-44-66-4-6-
-2-22-2---22-22-44-44-2-4-
-0----0---00----22--------

verse
-----------------
-----------------
-444-666-----444-
-444-666-444-444-
-222-444-444-222-
---------222-----

pre chorus
[ Tab from: http://www.guitartabs.cc/tabs/m/mxpx/scooby_doo_where_are_you_tab_ver_2.html ]
-------------
-------------
-666---44----
-666-2-44-2--
-444-2-22-2--
-----0----0--

bridge!

GO!
------------
------------
---99-11----
-9-99-11-99-
-9-77-9--99-
-7-------77-

Solo

------------------------------------------------
------------------------------------------------
-8/6/4/6/8/1----8/6--8/6/4/6/8/9---8/6/4--------
-------------44------------------44-------------
------------------------------------------------
------------------------------------------------

thats all, check  out westbound at
www.newmusiccanada.com/
Comments