Mxpx - Scooby Doo Where Are You Chords & Tabs

 

Scooby Doo Where Are You Chords & Tabs

Mxpx Chords & Tabs

Version: 1 Type: Bass Tab 0 ratings
1 star 2 stars 3 stars 4 stars 5 stars
comments

Scooby Doo Where Are You Bass Tab

Intro
g ----------------------------------------------------|
d -----222----222----222-----222----2222---2---2--44--|
a --2>-----2>-----2>-----2222---2222-----2---2--------|
e ----------------------------------------------------|

Verse
g --------------------------------------|
d -------------------44444444-----------| 4x
a -22222222-44444444----------22222222--|
e --------------------------------------|
[ Tab from: http://www.guitartabs.cc/tabs/m/mxpx/scooby_doo_where_are_you_btab.html ]
Chorus
g -----------------------------------------------------|
d --2-2-2-2-2-2-2-2----22----2-2-2-2-2-2-2234--4444/0--|
a ------------------22----22---------------------------|
e -----------------------------------------------------|

Bridge
g ------------------------------------------|
d --4--2-44-4--4--2-44-4--4--2-44-4--4--2r--|
a ----2----------2----------2----------2----|
e ------------------------------------------|

Verse 2x play the last notes longer at the second time
verse 2x 

End
g -----------------------------------------------------|
d -4444---------------222-----222----2---2--44---------|
a ------22222222-2222----2222------2---2-------2/0-----|
e -----------------------------------------------------|
Comments