Mxpx - Scooby Doo Solo Chords & Tabs

 

Scooby Doo Solo Chords & Tabs

Mxpx Chords & Tabs

Version: 1 Type: Tab 0 ratings
1 star 2 stars 3 stars 4 stars 5 stars
comments

Scooby Doo Solo Tab

------------------------------
------------------------------
-8-6-4-6-8-------8-6-6-4------
------------6-4-4-------------
------------------------------
------------------------------

------------------------------
------------------------------
-8-6-4-6-8-9------8-6-6-4-----
---------------4-4------------
------------------------------
------------------------------
[ Tab from: http://www.guitartabs.cc/tabs/m/mxpx/scooby_doo_solo_tab.html ]
Comments