Mxpx - Responsibility Chords & Tabs

 

Responsibility Chords & Tabs

Mxpx Chords & Tabs

Version: 4 Type: Tab 0 ratings
1 star 2 stars 3 stars 4 stars 5 stars
comments

Responsibility Tab

   
Song: Responsibility 
Artist: MxPx
Tabbed by: Mike R.
I 100% guarentee this is 100% perfect!!!

Standard Tuning

Intro:
e----------------------------
B----------------------------
G----------------------------	x4
D-----6---9---6-------7---9--
A-7-7---7---7---7-0-0---0-7-9
E---------------------------7

Verse
e--------------------------------------------------
B--------------------------------------------------
G--------------------------------------------------
D-9------------2------------------2-2-2-2-2-2-2-2--
A-7------------0---------------2--0-0-0-0-0-0-0-0-2
E------------------------------0------------------0
don't want this  responsibilty...

e-----------------------------------------------------
B-----------------------------------------------------
G-----------------------------------------------------
D------------2-------------------------2-2-2-2-2-2-2-2
A------------0----------------------2--0-0-0-0-0-0-0-0
E-----------------------------------0-----------------
don't use me    'cause i don't agree

e----------------------------------------------------------------
B----------------------------------------------------------------
G----------------------------------------------------------------
D-4-4-4-4-4-4-4-4-2-2-2-2-2-2-2-2-----------2-2-2-----------2-2-2
A-2-2-2-2-2-2-2-2-0-0-0-0-0-0-0-0-2-2-2-2-2-0-0-0-2-2-2-2-2-0-0-0
E---------------------------------0-0-0-0-0-------0-0-0-0-0------
why lie           do or           die             

e------------
B------------
G------------
D-4-----2----
A-2-----0----
E------------
why lie do or

Chorus
e-----------------------------
B-----------------------------
G-----------------------------	x3
D---------------2-2-------4-4-
A-2-2-2-2-2-----0-0-------2-2-
E-0-0-0-0-0-------------------
responsibility, what's    that? 
responsibility, not quite yet
responsibility, what's    that?
[ Tab from: http://www.guitartabs.cc/tabs/m/mxpx/responsibility_tab_ver_4.html ]
e---------------------------------|--------            	|	      e--------
B---------------------------------|-------- 		|	      B--------
G---------------------------------|-------- FIRST TIME	|SECOND TIME  G--------
D-6---2---4-4-4-4-4-4-4-4-4-4-4-4-|4-4-4-4- CHORUS PLAYS|CHORUS PLAYS D-x-x-x-x
A-4---0---2-2-2-2-2-2-2-2-2-2-2-2-|2-2-2-2-		|             A-x-x-x-x
E---------------------------------|-------- 		|	      E--------

Pre-Verse
e---------------------------
B---------------------------
G---------------------------
D-9---9-9----9---9-9----9---
A-7-9-7-7----7-9-7-7----7-9-
E---7----------7----------7-
	GO TO VERSE
	GO TO CHORUS

Verse 2
e-----------------------------------------------------------------
B-----------------------------------------------------------------
G-----------------------------------------------------------------
D-9-9-9-9-9-9-9-9-9-9-9-9-9-9-9-9-6-6-6-6-6-6-6-6-6-6-6-6-6-6-6-6-
A-7-7-7-7-7-7-7-7-7-7-7-7-7-7-7-7-4-4-4-4-4-4-4-4-4-4-4-4-4-4-4-4-
E-----------------------------------------------------------------
i'm still young	and i'd like to   stay this way, 'cause growing 
						 i've gotta voice
e----------------------------------------------------------------------
B----------------------------------------------------------------------
G----------------------------------------------------------------------
D-4-4-4-4-4-4-4-4-4-4-4-4-4-4-4-4-2-2-2-2-2-2-2-2-2-2-2-2-2-2-2-2--9---
A-2-2-2-2-2-2-2-2-2-2-2-2-2-2-2-2-0-0-0-0-0-0-0-0-0-0-0-0-0-0-0-0--7-9-
E--------------------------------------------------------------------7-
up won't make every...          ...thing ok
and i've gotta			  lot to say		      gotta lot to say 

	GO TO INTRO
	GO TO CHORUS

THIRD TIME TROUGH PLAYS...
e----------------------------------------------------------
B----------------------------------------------------------
G----------------------------------------------------------
D-6-6-6-6----2-2-2-2---------4-4-4-4--------6-6-6-6--------
A-4-4-4-4----0-0-0-0---------2-2-2-2--------4-4-4-4--------
E----------------------------------------------------------
i dont wanna think about it, we'd be better off without it, 

e---------------------------
B---------------------------
G---------------------------
D-2-2-2-2-----4-4-4---------
A-0-0-0-0-----2-2-2--2------
E--------------------0------
i don't wanna think about it
Comments