Mxpx - Responsibility Chords & Tabs

 

Responsibility Chords & Tabs

Mxpx Chords & Tabs

Version: 2 Type: Tab 0 ratings
1 star 2 stars 3 stars 4 stars 5 stars
comments

Responsibility Tab

   
#----------------------------------PLEASE NOTE--------------------------------# 
#This file is the author's own work and represents their interpretation of the# 
#song. You may only use this file for private study, scholarship, or research.# 
#-----------------------------------------------------------------------------# 

Song: Responsibility
Band: Mxpx
Album: The Ever Passing Moment
Tabbed by: DONCH - misterious@saintly.com
Tuning: E,A,D,G,B,E standard tuning

Intro:
|-------------------------------|
|-------------------------------|
|-------------------------------|
|-9-----------------------------|
|-9-9------6---9---6------------| x4  
|-7-9--7-7---7---7---7-0-0-0----|
|---7---------------------------|


Verse: 
|-----|------------------------------------|
|-----|------------------------------------|
|-9---|-9-9--------------------------------| x2
|-9-9-|-9-9--7-7--9-9--7-7-7-7-------------|
|-7-9-|-7-7--7-7--9-9--7-7-7-7-------------|
|---7-|------5-5--7-7--5-5-5-5-------------|


Pre-Chorus:
|-----------------------------------------------------------|
|-----------------------------------------------------------|
|-----------------------9-9-9-------9-9-9-------------------|
|-9-9-9-9-9--7-7-7-7-7--9-9-9--7-7--9-9-9--7-7----9---7---- |
|-9-9-9-9-9--7-7-7-7-7--7-7-7--7-7--7-7-7--7-7----9---7-----|
|-7-7-7-7-7--5-5-5-5-5---------5-5---------5-5----7---5-----|


Chorus:
|-------------------------------------------------------------------------|
|-------------------------------------------------------------------------|
|-9x9x9x9-2x2-4x4/--9x9x9x9-2x2-4x4/--9x9x9x9-2x2-4x4/-6------------------|
|-9x9x9x9-2x2-4x4/--9x9x9x9-2x2-4x4/--9x9x9x9-2x2-4x4/-6---7--9-9-9-9-9---|
|-7x7x7x7-0x0-2x2/--7x7x7x7-0x0-2x2/--7x7x7x7-0x0-2x2/-4---7--9-9-9-9-9---|
|----------------------------------------------------------5--7-7-7-7-7---|


Bridge & Verse:
|---------------------------------|-------------------------- |
|---------------------------------|---------------------------|
|-9---9-9\-0----9----9-9\-0---9---|-9-9-----------------------|
|-9-9-9-9\-0----9-9--9-9\-0---9-9-|-9-9--7-7--9-9--7-7-7-7-7--| x2
|-7-9-7-7\-0----7-9--7-7\-0---7-9-|-7-7--7-7--9-9--7-7-7-7-7--| 
|---7-------------7-------------7-|------5-5--7-7--5-5-5-5-5--|


Pre-Chorus:
|-----------------------------------------------------------|
|-----------------------------------------------------------|
|-----------------------9-9-9-------9-9-9-------------------|
|-9-9-9-9-9--7-7-7-7-7--9-9-9--7-7--9-9-9--7-7----9---7---- |
|-9-9-9-9-9--7-7-7-7-7--7-7-7--7-7--7-7-7--7-7----9---7-----|
|-7-7-7-7-7--5-5-5-5-5---------5-5---------5-5----7---5-----|

[ Tab from: http://www.guitartabs.cc/tabs/m/mxpx/responsibility_tab_ver_2.html ]
Chorus:
|-------------------------------------------------------------------------|
|-------------------------------------------------------------------------|
|-9x9x9x9-2x2-4x4/--9x9x9x9-2x2-4x4/--9x9x9x9-2x2-4x4/-6------------------|
|-9x9x9x9-2x2-4x4/--9x9x9x9-2x2-4x4/--9x9x9x9-2x2-4x4/-6---7--9-9-9-9-9---|
|-7x7x7x7-0x0-2x2/--7x7x7x7-0x0-2x2/--7x7x7x7-0x0-2x2/-4---7--9-9-9-9-9---|
|----------------------------------------------------------5--7-7-7-7-7---|


Interlude:
|-x-x------------------------------------------------------------------------------|
|-x-x------------------------------------------------------------------------------|
|-x-x--9-9-9-9-9-9-9-9--6-6-6-6-6-6-6-6--4-4-4-4-4-4-4-4-------------------9-------|
|-x-x--x-x-x-x-x-x-x-x--x-x-x-x-x-x-x-x--x-x-x-x-x-x-x-x--7-7-7-7-7-7-7-7--9--9----|
|-x-x--7-7-7-7-7-7-7-7--4-4-4-4-4-4-4-4--2-2-2-2-2-2-2-2--7-7-7-7-7-7-7-7--7--9----|
|-x-x-----------------------------------------------------5-5-5-5-5-5-5-5-----7----|

|----------------------------------------------------------------------------------|
|----------------------------------------------------------------------------------|
|---9-9-9-9/11-11\9-9--6-6-6-6-6-6-6-6--4-4-4-4/6-6\4-4-------------------9--------|
|---x-x-x-x/x--x-\x-x--x-x-x-x-x-x-x-x--x-x-x-x/x-x\x-x--7-7-7-7-7-7-7-7--9--9--7--|
|---7-7-7-7/9--9-\7-7--4-4-4-4-4-4-4-4--2-2-2-2/4-4\2-2--7-7-7-7-7-7-7-7--7--9--7--|
|--------------------------------------------------------5-5-5-5-5-5-5-5-----7--5--|


Intro again:
|-------------------------------|
|-------------------------------| 
|-------------------------------|
|-9-----------------------------|
|-9-9------6---9---6------------| x2  
|-7-9--7-7---7---7---7-0-0-0----|
|---7---------------------------|


Chorus:
|------------------------------------------------------------------------------|
|------------------------------------------------------------------------------|
|-9----9x9x9x9-2x2-4x4/--9x9x9x9-2x2-4x4/--9x9x9x9-2x2-4x4/-6------------------|
|-9-9--9x9x9x9-2x2-4x4/--9x9x9x9-2x2-4x4/--9x9x9x9-2x2-4x4/-6---7--9-9-9-9-9---|
|-7-9--7x7x7x7-0x0-2x2/--7x7x7x7-0x0-2x2/--7x7x7x7-0x0-2x2/-4---7--9-9-9-9-9---|
|---7-----------------------------------------------------------5--7-7-7-7-7---|


Outro:
|---------------------------------------------------------|
|---------------------------------------------------------|
|-9-9-9-9-9-9----------------9-9-9-9-9-9------------------|
|-9-9-9-9-9-9--7-7-7--9-9-9--9-9-9-9-9-9--7-7-7--9-9-9----|
|-7-7-7-7-7-7--7-7-7--9-9-9--7-7-7-7-7-7--7-7-7--9-9-9----|
|--------------5-5-5--7-7-7---------------5-5-5--7-7-7----|

|---------------------------------------------------------------|
|---------------------------------------------------------------|
|-9-9-9-9-9-9---------------------------------------------------|
|-9-9-9-9-9-9--7-7-7--9-9-9--11-11-11--7-7-7--9-9-9--11-11-11---|
|-7-7-7-7-7-7--7-7-7--9-9-9--11-11-11--7-7-7--9-9-9--11-11-11---|
|--------------5-5-5--7-7-7--9--9--9---5-5-5--7-7-7--9--9--9----|
                 
|---------------|-----|
|---------------|-----|
|---------------|--9--|
|-7-7-7--9-9-9--|--9--| 
|-7-7-7--9-9-9--|--7--|
|-5-5-5--7-7-7--|-----|


De - Donch
Para - Michelitas
TQBK Acuerdate siempre!!!!!!

I think this tab is 100% accurate. Any doubts, mistakes or 
corrections please e-mail me at misterious@saintly.com. 
Comments