Mxpx - Responsibility Chords & Tabs

 

Responsibility Chords & Tabs

Mxpx Chords & Tabs

Version: 1 Type: Bass Tab 0 ratings
1 star 2 stars 3 stars 4 stars 5 stars
comments

Responsibility Bass Tab

MXPX
Responsibility
The Ever Passing Moment
tabbed by James and Co.
email corrections to j5272@home.com

STANDARD TUNING

This took me about 20 minutes to tab. The way the other guy did it used the
E string a lot, when actually it is played mostly on the A string.
If you put this on your site or anywhere else, leave it EXACTLY as this is.
If there are any corrections, they are pretty minor because this is pretty 
close to the way Mike plays it.

/ means slide up
x means mute string after playing for 1 count
r= ring

G-------------------         
D-------------------   
A-7-77777777--------   Repeat 4 more times then A-7-
E--7---------5555---				E--7

G--------------------------
D--------------------------	
A-77-----------77----------   Repeat once
E--------55---------5555555

G-------------------------------------------
D-------------------------------------------
A---------------------7-------7-------------   
E-77777777-55555555------555----555---7---5-

G----------------------------------------------------------------------
D----------------------------------------------------------------------
A-7x7x7x7x-0x0x-2x2/7----7x7x7x7x-0x0x-2x2/7-7x7x7x7x-0x0x-2x2/4-------
E------------------------------------------------------------------5-77

G-------------------------------------------------
D------------------------------------------------- 
A-7--77--7-77-7-77-----77---------77------77------
E--7------7----7---55------55555------55-----5555-

G-------------------------------------------
D-------------------------------------------
A--------------------7-------7--------------   
E-77777777-55555555-----555----555---7---5--
[ Tab from: http://www.guitartabs.cc/tabs/m/mxpx/responsibility_btab.html ]
G----------------------------------------------------------------------
D----------------------------------------------------------------------
A-7x7x7x7x-0x0x-2x2/7----7x7x7x7x-0x0x-2x2/7-7x7x7x7x-0x0x-2x2/4-------
E------------------------------------------------------------------5-77

G-------------------------------------------------------------------
D-------------------------------------------------------------------
A-7777777777777777-----------------------------------------------7--
E-----------------9999999999999999-7777777777777777-555555555555---7


G--------------------------------------------------------------------------
D--------------------------------------------------------------------------
A-7777777777777777-----------------------------------------------7-----7---
E-----------------9999999999999999-7777777777777777-555555555555---7-5--7--


G-------------------------------------
D-------------------------------------
A-77777777-------7---77777777------7--
E----------5555---7----------5555---5-


G----------------------------------------------------------------------
D----------------------------------------------------------------------
A-7x7x7x7x-0x0x-2x2/7----7x7x7x7x-0x0x-2x2/7-7x7x7x7x-0x0x-2x2/4-------
E------------------------------------------------------------------5-77

G-----------------------------------------------
D-----------------------------------------------
A-77777777----------77777777------------77777777
E---------5555-7777-----------5555-7777---------

G--------------------------------------------
D--------------------------------------------
A-----------------------------------------7r-
E-5555-7777-9999-5555-7777-9999-5555-7777----

Comments