Mxpx - Rainy Day Chords & Tabs

 

Rainy Day Chords & Tabs

Mxpx Chords & Tabs

Version: 1 Type: Tab 0 ratings
1 star 2 stars 3 stars 4 stars 5 stars
comments

Rainy Day Tab

Song: Rainy Day
Artist: MxPx
Album: Teenage Politics/Ten Years And Running
Tabbed By: Zero is Great man

Standard Tunning(Right): EADGBe

Fig.1: Intro 
e|-------------------------------------|
B|-------------------------------------|
G|-7------------------7-------4-4------|
D|-7--4-4--5-5--7-7---7--4-4--4-4--5-7-|
A|-5--4-4--5-5--7-7---5--4-4--2-2--5-7-|
E|----2-2--3-3--5-5------2-2-------3-5-|

Fig.2: Verse
e|-------------------------------------|
B|-------------------------------------|
G|-7-7-7-7-----------4-4-4-------------|
D|-7-7-7-7--4-4-4-4--4-4-4--5--7-7-7-7-|
A|-5-5-5-5--4-4-4-4--2-2-2--5--7-7-7-7-|
E|----------2-2-2-2---------3--5-5-5-5-|
[ Tab from: http://www.guitartabs.cc/tabs/m/mxpx/rainy_day_tab.html ]
Fig.3: Chorus
e|--------------------------------------------------------------------|
B|--------------------------------------------------------------------|
G|-7-7-7-7-7-7-7-7-------------------4-4-4-4-4-4-4-4------------------|
D|-7-7-7-7-7-7-7-7--4-4-4-4-4-4-4-4--4-4-4-4-4-4-4-4--7-7-7-7-7-7-7-7-|
A|-5-5-5-5-5-5-5-5--4-4-4-4-4-4-4-4--2-2-2-2-2-2-2-2--7-7-7-7-7-7-7-7-|
E|------------------2-2-2-2-2-2-2-2-------------------5-5-5-5-5-5-5-5-|

Fig.4:Bridge
e|------------------------------------|
B|------------------------------------|
G|-7-7-7-7----------------------------|
D|-7-7-7-7--4-4-4-4--5-5-5-5--7-7-7-7-|
A|-5-5-5-5--4-4-4-4--5-5-5-5--7-7-7-7-|
E|----------2-2-2-2--3-3-3-3--5-5-5-5-|

That's about it, Enjoy.
Comments