Mxpx - Punk Rawk Show Chords & Tabs

 

Punk Rawk Show Chords & Tabs

Mxpx Chords & Tabs

Version: 3 Type: Tab 0 ratings
1 star 2 stars 3 stars 4 stars 5 stars
comments

Punk Rawk Show Tab

   
Song : Punk Rawk Show
Band : MxPx
Tabbed By : Diamond Jerry (Raptureboy182@yahoo.com)


Strumming pattern not included...listen carefully for the timing

Standard Tuning
------------------------------------------------------------------------------

[Intro]- [Both guitar] Fast....
e|----------------------------------------|
B|----------------------------------------|
G|---5-5---------7-7----------------------|
D|---5-5---7-7---7-7---5-5-5-----(2x)-----|
A|---3-3---7-7---5-5---5-5-5--------------|
E|---------5-5---------3-3-3--------------|


[Verse] - [Guitar1] Slow....		                [Guitar2]
e|-----------------------------------------------------|-------------|
B|-----------------------6-6-6-6-----------------------|-------------|
G|---5-5-5-5-------------7-7-7-7---4-4-4-4--------5~---|---5~--------|
D|---5-5-5-5---7-7-7-7---7-7-7-7---5-5-5-5--(4x)--5~---|---5~--(5x)--|
A|---3-3-3-3---7-7-7-7---5-5-5-5---5-5-5-5--------3~---|---3~--------|
E|-------------5-5-5-5-------------3-3-3-3-------------|-------------|


[Verse] - [Both guitar] Fast....
e|----------------------------------------|
B|----------------------------------------|
G|---5-5---------7-7----------------------|
D|---5-5---7-7---7-7---5-5-5-----(4x)-----|
A|---3-3---7-7---5-5---5-5-5--------------|
E|---------5-5---------3-3-3--------------|


[Chorus] - [Both guitar]  Slow....
e|------------------------------------------------|
B|----------------------6-6-6-6-------------------|
G|--5-5-5-5-------------7-7-7-7---4-4-4-4---------|
D|--5-5-5-5---7-7-7-7---7-7-7-7---5-5-5-5--(2x)---|
A|--3-3-3-3---7-7-7-7---5-5-5-5---5-5-5-5---------|
E|------------5-5-5-5-------------3-3-3-3---------|

e|--------------------------------------------------------------------|
B|--------------------------------------------------------------------|
G|-2-2-2-2---5-5-5-5---4-4-4-4---------------2-2-2-2---4-4-4-4--------|
D|-3-3-3-3---5-5-5-5---5-5-5-5---7-7-7-7-----3-3-3-3---5-5-5-5--------|
A|-3-3-3-3---3-3-3-3---5-5-5-5---7-7-7-7-----3-3-3-3---5-5-5-5--------|
E|-1-1-1-1-------------3-3-3-3---5-5-5-5-----1-1-1-1---3-3-3-3--------|
[ Tab from: http://www.guitartabs.cc/tabs/m/mxpx/punk_rawk_show_tab_ver_3.html ]
 Fast...
e|----------------------------------------|
B|----------------------------------------|
G|---5-5---------7-7----------------------|
D|---5-5---7-7---7-7---5-5-5-----(2x)-----|
A|---3-3---7-7---5-5---5-5-5--------------|
E|---------5-5---------3-3-3--------------|

e|--------------------------------------------------------------------|
B|--------------------------------------------------------------------|
G|-2-2-2-2---5-5-5-5---4-4-4-4---------------2-2-2-2---4-4-4-4--------|
D|-3-3-3-3---5-5-5-5---5-5-5-5---7-7-7-7-----3-3-3-3---5-5-5-5--------|
A|-3-3-3-3---3-3-3-3---5-5-5-5---7-7-7-7-----3-3-3-3---5-5-5-5--------|
E|-1-1-1-1-------------3-3-3-3---5-5-5-5-----1-1-1-1---3-3-3-3--------|

Slow
e|------------------------------------------------|
B|----------------------6-6-6-6-------------------|
G|--5-5-5-5-------------7-7-7-7---4-4-4-4---------|
D|--5-5-5-5---7-7-7-7---7-7-7-7---5-5-5-5--(2x)---|
A|--3-3-3-3---7-7-7-7---5-5-5-5---5-5-5-5---------|
E|------------5-5-5-5-------------3-3-3-3---------|

------------------------------------------------------------------------------

[Solo] - [Guitar1] Fast....
e|----------------------------------------|
B|----------------------------------------|
G|---5-5---------7-7----------------------|
D|---5-5---7-7---7-7---5-5-5-----(4x)-----|
A|---3-3---7-7---5-5---5-5-5--------------|
E|---------5-5---------3-3-3--------------|

[Guitar2]
e|----------------------------------------------------------------------|
B|----------------------------------------------------------------------|
G|---555555555555555----/-999999999999999----/-12121212121212-----------|
D|---xxxxxxxxxxxxxxx----/-xxxxxxxxxxxxxxx----/--x-x-x-x-x-x-x-----------|
A|---333333333333333----/-777777777777777----/-10101010101010-----------|
E|----------------------------------------------------------------------|


[Verse] N/C
e|------|----------------|
B|------|----------------|
G|---5--|----------------|
D|---5--|--(slide here)--|
A|---3--|---\\\\\\\\\\\--|
E|------|----------------|


-repeat chorus-

(End on C)
------------------------------------------------------------------------------
Any comments or corrections,just mail me to Raptureboy182@yahoo.com/ICQ #115343571
Comments