Mxpx - Punk Rawk Show Chords & Tabs

 

Punk Rawk Show Chords & Tabs

Mxpx Chords & Tabs

Version: 1 Type: Tab 0 ratings
1 star 2 stars 3 stars 4 stars 5 stars
comments

Punk Rawk Show Tab

   
!!! USA !!!   Intro

     C   A   D   G   C   A   D   G
 E|--0---0---2---3---0---0---2---3--|
 B|--1---2---3---0---1---2---3---0--|
 G|--0---2---2---0---0---2---2---0--|
 D|--2---2---0---0---2---2---0---0--|
 A|--3---0---0---2---3---0---0---2--|
 E|--0---0---0---3---0---0---0---3--|

   Verse 1

     C                 A 
 E|--0-----------------0------------|
 B|--1-----------------2------------|
 G|--0-----------------2------------|
 D|--2-----------------2------------|
 A|--3-----------------0------------|
 E|--0-----------------0------------|
     We ain't got no place to go

         D               G
 E|------2---------------3-------------|
 B|------3---------------0-------------|
 G|------2---------------0-------------|
 D|------0---------------0-------------|
 A|------0---------------2-------------|
 E|------0---------------3-------------|
     So let's go to the punk rock show

       C             A
 E|----0-------------0-------------|
 B|----1-------------2-------------|
 G|----0-------------2-------------|
 D|----2-------------2-------------|
 A|----3-------------0-------------|
 E|----0-------------0-------------|
     Darling take me by the hand

             D          G
 E|----------2----------3--------------|
 B|----------3----------0--------------|
 G|----------2----------0--------------|
 D|----------0----------0--------------|
 A|----------0----------2--------------|
 E|----------0----------3--------------|
     We're gonna see a punk rock band

       C               A          D         G
 E|----0---------------0----------2---------3----|
 B|----1---------------2----------3---------0----|
 G|----0---------------2----------2---------0----|
 D|----2---------------2----------0---------0----|
 A|----3---------------0----------0---------2----|
 E|----0---------------0----------0---------3----|
     There's no use in TV shows, radio, or rodeo
[ Tab from: http://www.guitartabs.cc/tabs/m/mxpx/punk_rawk_show_tab.html ]
        C          A
 E|-----0----------0------------|
 B|-----1----------2------------|
 G|-----0----------2------------|
 D|-----2----------2------------|
 A|-----3----------0------------|
 E|-----0----------0------------|
     I wanna get into the crowd

        D              G          C   C  A  D  G C  A  D  G
 E|-----2--------------3----------0---0--0--2--3-0--0--2--3|
 B|-----3--------------0----------1---1--2--3--0-1--2--3--0|
 G|-----2--------------0----------0---0--2--2--0-0--2--2--0|
 D|-----0--------------0----------2---2--2--0--0-2--2--0--0|
 A|-----0--------------2----------3---3--0--0--2-3--0--0--2|
 E|-----0--------------3----------0---0--0--0--3-0--0--0--3|
     I wanna hear it played real loud,l__o__u__d,l__o__u__d

   Chorus

      F
 E|---1------------------------|
 B|---1------------------------|
 G|---2------------------------|
 D|---3------------------------|
 A|---3------------------------|
 E|---1------------------------|
     Ain't got no money to pay

      C
 E|---0-------------------|
 B|---1-------------------|
 G|---0-------------------|
 D|---2-------------------|
 A|---3-------------------|
 E|---0-------------------|
     we'll get in anyway

       G
 E|----3--------------------------|
 B|----0--------------------------|
 G|----0--------------------------|
 D|----0--------------------------|
 A|----2--------------------------|
 E|----3--------------------------|
     doesn't matter I don't care

      A
 E|---0--------------------------------|
 B|---2--------------------------------|
 G|---2--------------------------------|
 D|---2--------------------------------|
 A|---0--------------------------------|
 E|---0--------------------------------|
     It's feel good so we should share

      F                  G    D   C  A  D  G
 E|---1------------------3----2---0--0--2--3--|
 B|---1------------------0----3---1--2--3--0--|
 G|---2------------------0----2---0--2--2--0--|
 D|---3------------------0----0---2--2--0--0--|
 A|---3------------------2----0---3--0--0--2--|
 E|---1------------------3----0---0--0--0--3--|
     We're going to the punk rock s__h__o__w

   Riff1

      C  A  D  G
 E|---0--0--2--3---|
 B|---1--2--3--0---|
 G|---0--2--2--0---|
 D|---2--2--0--0---|
 A|---3--0--0--2---|
 E|---0--0--0--3---|
   
   Repeat Riff1 4x

tabbed by incubusfan13
Comments