Mxpx - Popeye The Sailor Man Solo Chords & Tabs

 

Popeye The Sailor Man Solo Chords & Tabs

Mxpx Chords & Tabs

Version: 1 Type: Tab 0 ratings
1 star 2 stars 3 stars 4 stars 5 stars
comments

Popeye The Sailor Man Solo Tab

popeye the sailor man solo good luck
-------------------------------------------------------------------
-----------------------------5-3---3--------3----------------------
--5-4-5--------------0-5-4-5-----5------------5-4-2-0--------------
---------------5-3-2------------------5-5--------------3-5---------
--------3-3--------------------------------------------------------
-------------------------------------------------------------------
[ Tab from: http://www.guitartabs.cc/tabs/m/mxpx/popeye_the_sailor_man_solo_tab.html ]
-------------------------------------------------------------------
----0-1-0----------------------------------------------------------
--2-------2-0-2-0--------------------------------------------------
------------------3-2-3-2-0---0---------------0-2-3-2h3p2----------
----------------------------3---3-2-0---0-2-3-------------3-3------
--------------------------------------3----------------------------

-------------------------------------------------------------------
-------------------------------------------------------------------
--2-2-2-------0-0-0----------------2-0-----------------------------
--------0-2-3---------0-2--3-3-3-----------------------------------
--------------------3------------2---------------------------------

-------------------------------------------------------------------
-------------------------------------------------------------------
--2-2-2-------0-0-0------------------------------------------------
--------0-2-3---------0-2--3-3-3-----------------------------------
--------------------3------------2-2-3-----------------------------
-------------------------------------------------------------------
Comments