Mxpx - One Step Closer To Life Chords & Tabs

 

One Step Closer To Life Chords & Tabs

Mxpx Chords & Tabs

Version: 1 Type: Bass Tab 0 ratings
1 star 2 stars 3 stars 4 stars 5 stars
comments

One Step Closer To Life Bass Tab

Song: One Step Closer To Life (correction)
Artist: Mxpx
Album: The Ever Passing Moment
Tabbed by: Damian Haeusler (sonofachampion@icqmail.com)

It's in 6/8 time
The tab that was here before is way out. I think the guy who wrote it must
have dropped every string down a semitone and forgot about it or something
It actually goes like this...

Intro
G--------------------------------------------------
D--------------------------------------------------
A--------------5-5-5-5-5-5-------------------------
E--1-1-1-1-1-1-------------5-5-5-5-5-5-6-5-6-8-6-5-

G--------------------------------------------------
D--------------------------------------------------
A--------------5-5-5-5-5-5-------------------------
E--1-1-1-1-1-1-------------3-3-3-5-5-5-6-6-6-2-2-2-


Verse
G--------------------------------------------------
D--------------------------------------------------
A--------------------------------------------------
E--1-1-1-1-----1-1-1-1-----1-1-1-1-----1-1-1-1-----

G--------------------------------------------------
D--------------------------------------------------
A--5-5-5-5-----5-5-5-5-----5-5-5-5-----5-5-5-5-----
E--------------------------------------------------

G--------------------------------------------------
D--------------------------------------------------
A--------------------------------------------------
E--5-5-5-5-----5-5-5-5-----5-5-5-5-----5-5-5-5-----

G--------------------------------------------------
D--------------------------------------------------
A--------------------------2-2-2-2-2-2-2-2-2-2-2-2-
E--6-6-6-6-----6-6-6-6-----------------------------

[ Tab from: http://www.guitartabs.cc/tabs/m/mxpx/one_step_closer_to_life_btab.html ]
Chorus
G--------------------------------------------------
D--------------------------------------------------
A--------------5-5-5-5-5-5-------------------------
E--1-1-1-1-1-1-------------5-5-5-5-5-5-6-6-6-6-6-6-

G--------------------------------------------------
D--------------------------------------------------
A--------------5-5-5-5-5-5-------------------------
E--1-1-1-1-1-1-------------5-5-5-5-5-5-6-5-6-8-6-5-


Bridge
G--------------------------------------------------
D--------------------------------------------------
A--1-----------3-----------------------------------
E--------------------------1-----------------------

G--------------------------------------------------
D--------------------------3-----2-----0-----3-----
A--1-----------3-----------------------------------
E--------------------------------------------------

G--------------------------------------------------
D--------------------------------------------------
A--1-----------3-----------------------------------
E--------------------------1-----------------------

G--------------------------------------------------
D--------------------------------------------------
A--1-1-1-1-1-1-1-1-1-1-1-1-3-3-3-3-3-3---3-3---3-5-
E--------------------------------------------------


Outro
G--------------------------------------------------
D--------------------------------------------------
A--------------5-5-5-5-----------------------3-3-3-
E--1-1-1-1-----------------3-3-3-5-5-5-6-6-6-------

G------------------------
D------------------------
A------------------------
E--1---------------------

Structure
intro x1
verse x2
chorus x2
verse x1
chorus x2
bridge x1
chorus x2
outro x1

Comments