Mxpx - Oh Boy Chords & Tabs

 

Oh Boy Chords & Tabs

Mxpx Chords & Tabs

Version: 1 Type: Bass Tab 0 ratings
1 star 2 stars 3 stars 4 stars 5 stars
comments

Oh Boy Bass Tab

Here it is!
Song:  Oh Boy!
Artist:  MxPx
Album:  On the Cover
Original Artist:  Buddy Holly

FOR ALL YOU BASS PLAYERS! HERE IS THE BASS TAB!
[ Tab from: http://www.guitartabs.cc/tabs/m/mxpx/oh_boy_btab.html ]
G|----------------------------------------0---------------------------
D|------0----------------0--------------2---2-3-2-0-2-----0-----------
A|----2---2-3-2-0-2----2---2-3-2-0-2--3-----------------2---2-3-2-0-2-
E|--3----------------3--------------------------------3---------------


-----------------0------------------
----4-5-7----2-3--------0-----------
--5--------3----------2---2-3-2-0-2-
--------------------3---------------


I think I covered it all!
send whatever you want to say to kritter@talltwn.com



Comments