Mxpx - No Action Chords & Tabs

 

No Action Chords & Tabs

Mxpx Chords & Tabs

Version: 1 Type: Tab 0 ratings
1 star 2 stars 3 stars 4 stars 5 stars
comments

No Action Tab

from "Before You Were Punk 2" comp. on Vagrant records 

verse: "i don't wanna call you, i don't wanna touch..." 
e|--------(x3)-| 
B|-------------| 
G|--9----------| 
D|--9----9-----| 
A|--7----9-----| 
E|-------7-----| 

pre-chorus: "i'm not telephone junkie..." 
e|----------|-------------------|------(x2)-|---------| 
B|----------|-------------------|-----------|---------| 
G|-------9--|-------9-----------|-------9---|---------| 
D|--7----9--|--7----9----7-6-9--|--7----9---|--7-6-9--| 
A|--7----7--|--7----7----7-6-9--|--7----7---|--7-6-9--| 
E|--5-------|--5---------5-4-7--|--5--------|--5-4-7--| 
[ Tab from: http://www.guitartabs.cc/tabs/m/mxpx/no_action_tab.html ]
chorus: "there's no action..." 
e|------------------------------|---------------------------| 
B|------------------------------|---------------------------| 
G|--9---------6-----------------|-------9----------9--------| 
D|--9----9----6----6----7----4--|--9999-9-9---9999-9-9---9--| 
A|--7----9----4----6----7----4--|--9999-7-9---9999-7-9---9--| 
E|-------7---------4----5----2--|--7777---7---7777---7---7--| 

2nd verse: 
*play verse 4 times 

2nd pre-chorus 
e|----------|-----------------(x2)-|------(x7)-|----------| 
B|----------|----------------------|-----------|----------| 
G|-------9--|-------9--------------|-------9---|----------| 
D|--7----9--|--7----9----7-6-9-----|--7----9---|--4----9--| 
A|--7----7--|--7----7----7-6-9-----|--7----7---|--4----9--| 
E|--5-------|--5---------5-4-7-----|--5--------|--2----7--| 

2nd chorus: 
e|------------------------------|-------------------(x3)-|----| 
B|------------------------------|------------------------|----| 
G|--9---------6-----------------|-------9----------9-----|----| 
D|--9----9----6----6----7----4--|--9999-9-9---9999-9-9---|-9--| 
A|--7----9----4----6----7----4--|--9999-7-9---9999-7-9---|-9--| 
E|-------7---------4----5----2--|--7777---7---7777---7---|-7--| 

ending chorus: 
*same as 1st chorus
Comments