Mxpx - No Action Chords & Tabs

 

No Action Chords & Tabs

Mxpx Chords & Tabs

Version: 2 Type: Bass Tab 0 ratings
1 star 2 stars 3 stars 4 stars 5 stars
comments

No Action Bass Tab

Song: No Action
Artist: MxPx
Album: Before You Were Punk 2
Tabbed By: Paul Assaad (pxpx47@hotmail.com)

This is probably my favorite MxPx cover. Enjoy!


Part I                                                    (1)
G|---------------------------------------------------------|
D|---------------------------------------------------------|
A|----------------0-77--7-7--0-7--------0-7--0-7-----------|
E|-0-7--0-7--0-7-----------------54-7>-----------54-7>-----|

[ Tab from: http://www.guitartabs.cc/tabs/m/mxpx/no_action_btab_ver_2.html ]
Chorus                                                    (2)
G|---------------------------------------------------------|
D|------------------------------2---------2----------------|
A|-----2>--4>---------------------2---------2--------------|
E|-0>----------4>--5>--2>--2222------2222------2>----------|


Part II                                                   (3)
G|---------------------------------------------------------|
D|---------------------------------------------------------|
A|---------------------0-77--7-7--0-7-------0-7------------|
E|-0-7--0-7--0-7--0-7-----------------54-7------54-7-------|


Part III (Bass Solo)                                      (4)
G|---------------------------------------------------------|
D|---------------------------------------------------------|
A|-0>-7>--0>-7>--0>-7>--0>-7>--0-0-7-7--0-0-7-7---------2>-|
E|----------------------------------------------2-2-2-2----|


Order: 1, 2, 3, 4, 2(chorus repeats into the ending).
Comments