Mxpx - My Mistake Chords & Tabs

 

My Mistake Chords & Tabs

Mxpx Chords & Tabs

Version: 3 Type: Tab 0 ratings
1 star 2 stars 3 stars 4 stars 5 stars
comments

My Mistake Tab

   
-------------------------------------------------------------------------------
			     My Mistake - MxPx
-------------------------------------------------------------------------------

Artist: MxPx
Song: My Mistake
Albulm: Ten Years And Running(Track 2)
Tabbed by: Zero Is Great Man
Tuning: Standard E Tunning: EADGBe

Intro:
e|------------------|
B|------------------|
G|-11-11-11/12------|
D|-x--x--x-/-x---12-|
A|-9--9--9/-10----x-|
E|---------------10-|


Verse 1: 
"I broke every thing we had"  | "There's no fixing what went bad,"
e|----------------------------|-----------------------------------|
B|----------------------------|-----------------------------------|
G|-7-7-7-7--------------------|----------7-7-7-7------------------|
D|-7-7-7-7--7-7-7-7-----------|-5-5-5-5--7-7-7-7------------------|
A|-5-5-5-5--7-7-7-7-----------|-5-5-5-5--5-5-5-5------------------|
E|----------5-5-5-5-----------|-3-3-3-3---------------------------|

"So many fatal mistakes."
e|-------------x-x-x-x-|
B|-------------x-x-x-x-|
G|-------------x-x-x-x-|
D|-8-8-8-8-7-7-x-x-x-x-|
A|-8-8-8-8-7-7-x-x-x-x-|
E|-6-6-6-6-5-5-x-x-x-x-|

"I broke every single rule"   | "And I don't think they made a tool,"
e|----------------------------|-----------------------------------|
B|----------------------------|-----------------------------------|
G|-7-7-7-7--------------------|----------7-7-7-7------------------|
D|-7-7-7-7--7-7-7-7-----------|-5-5-5-5--7-7-7-7------------------|
A|-5-5-5-5--7-7-7-7-----------|-5-5-5-5--5-5-5-5------------------|
E|----------5-5-5-5-----------|-3-3-3-3---------------------------|

"To fix all of my mistakes..."
e|-------------------------------------------------------------------|
B|-------------------------------------------------------------------|
G|---------7-7-7-7---------------------------------------------------|
D|-8-8-8-8-7-7-7-7---------------------------------------------------|
A|-8-8-8-8-5-5-5-5---------------------------------------------------|
E|-6-6-6-6---[--------------Pick Scrape-------------------]----------|

Chorus:
"When I said goodbye."  | "It brought a tear to your eye"
e|----------------------|--------------------------------------------|
B|----------------------|--------------------------------------------|
G|----------------------|-7/9-9/11-11-\-9-9--------------------------|
D|-5-5-5-5--8-8-8-8-----|-x/x-x/x---x-\-x-x--------------------------|
A|-5-5-5-5--8-8-8-8-----|-5/7-7/-9--9-\-7-7--------------------------|
E|-3-3-3-3--6-6-6-6-----|--------------------------------------------|

"That was my mistake..."
e|-----------------|
B|-----------------|
G|-----------------|
D|-5-5-5-5-7-7-7-7-|
A|-5-5-5-5-7-7-7-7-|
E|-3-3-3-3-5-5-5-5-|

Fill: (x2)
e|----------------|
B|----------------|
G|-11-11-11/12----|
D|-x--x--x-/-x-12-|
A|-9--9--9/-10--x-|
E|-------------10-|
[ Tab from: http://www.guitartabs.cc/tabs/m/mxpx/my_mistake_tab_ver_3.html ]
"When I told you go," |"Cause I just didn't know..."
e|--------------------|------------------------------|
B|--------------------|------------------------------|
G|--------------------|------------------------------|
D|-5-5-5-5--8-8-8-8---|-4-4-4-4--9-9-9-9-------------|
A|-5-5-5-5--8-8-8-8---|-4-4-4-4--9-9-9-9-------------|
E|-3-3-3-3--6-6-6-6---|-2-2-2-2--7-7-7-7-------------|

"That was my mistake..."
e|-----------------|
B|-----------------|
G|-----------------|
D|-5-5-5-5-7-7-7-7-|
A|-5-5-5-5-7-7-7-7-|
E|-3-3-3-3-5-5-5-5-|

Fill: (x2)
e|----------------|
B|----------------|
G|-11-11-11/12----|
D|-x--x--x-/-x-12-|
A|-9--9--9/-10--x-|
E|-------------10-|


[Chorus: Fill plays 4x instead of 2x]

Bridge:
"Time will heal,|Bruises fade|Life will change the plans we made"|
e|--------------|------------|------------------------------------|
B|---7----------|------------|------------------------------------|
G|-----7--------|---6--------|---4--------6-----------------------|
D|-------7------|-----7------|-----5--------7---------------------|
A|-5------------|-------7----|-------5--------7-------------------|
E|--------------|-5----------|-3--------5-------------------------|

"If we face the truth and be are best there is no need to worry bout.."
e|--------------|------------|------------------------------------|
B|---7----------|------------|------------------------------------|
G|-----7--------|---6--------|---4--------6-----------------------|
D|-------7------|-----7------|-----5--------7---------------------|
A|-5------------|-------7----|-------5--------7-------------------|
E|--------------|-5----------|-3--------5-------------------------|

"...The rest"
e|-----------------------------------------------|
B|-7---------------------------------------------|
G|-7---------------------------------------------|
D|-7---------------------------------------------|
A|-5---------------------------------------------|
E|----------[-------Pick Scrape----------------]-|

[Chorus]

Outro:
"That was my mistake."
e|------------------------------------|
B|------------------------------------|
G|------------------------------------|
D|-5-5-5-5--7-7-7-7--9-9-9-9-9-9--7-7-|
A|-5-5-5-5--7-7-7-7--9-9-9-9-9-9--7-7-|
E|-3-3-3-3--5-5-5-5--7-7-7-7-7-7--5-5-|

"That was my mistake..."
e|-----------------|
B|-----------------|
G|-----------------|
D|-5-5-5-5-7-7-7-7-|
A|-5-5-5-5-7-7-7-7-|
E|-3-3-3-3-5-5-5-5-|

Fill: (x3)
e|----------------|
B|----------------|
G|-11-11-11/12----|
D|-x--x--x-/-x-12-|
A|-9--9--9/-10--x-|
E|-------------10-|

(End on)
e|--------------|
B|----------(7)-|
G|-7-7-7-7--(7)-|
D|-7-7-7-7--(7)-|
A|-5-5-5-5--(5)-|
E|--------------|



| /  slide up
| \  slide down
| h  hammer-on
| p  pull-off
| ~  vibrato
| +  harmonic
| x  Mute note

===============================================================================
Comments