Mxpx - My Mistake Chords & Tabs

 

My Mistake Chords & Tabs

Mxpx Chords & Tabs

Version: 1 Type: Bass Tab 0 ratings
1 star 2 stars 3 stars 4 stars 5 stars
comments

My Mistake Bass Tab

***My Mistake***
by MxPx
from the album "Ten Years and Running"
tabbed by ally    standard tuning (EADG)
* = rest 

Intro
g:-------------------------------------------------------------------------------
d:-------------------------------------------------------------------------------
a:-5-5-5-5-5-*-5-5-5-5-5-*-5-5-5-5-5-*-5-5-5-5-5-*-------------------------------
e:-------------------------------------------------------------------------------

Verse x2
g:-------------------------------------------------------------------------------
d:-------------------------------------------------------------------------------
a:-5-5-5-5-0-0-0-0---------5-5-5-5-1-1-1-1-5-5-5-5-------------------------------
e:-----------------3-3-3-3-------------------------------------------------------
 
Chorus
g:----------------------------------------------------------------
d:----------------------------------------------------------------
a:---------1-1-1-1-5-4-2-0-----------------5-5-5-5-5-*-5-5-5-5-5*-
e:-3-3-3-3-----------------3-3-3-3-5-5-5-5------------------------
[ Tab from: http://www.guitartabs.cc/tabs/m/mxpx/my_mistake_btab.html ]
g:--------------------------------------------------------------------------------
d:--------------------------------------------------------------------------------
a:---------1-1-1-1---------2-2-2-2-----------------5-5-5-5-5-*-5-5-5-5-5*---------
e:-3-3-3-3---------2-2-2-2---------3-3-3-3-5-5-5-5--------------------------------

Bridge - played as semibreves (whole notes)

g:--------------------------------------------------------------------------------
d:--------------------------------------------------------------------------------
a:-5----4-------------------------------------------------------------------------
e:-----------3----5---------------------------------------------------------------

Outro "That was my mistake..."

g:--------------------------------------------------------------------------------
d:--------------------------------------------------------------------------------
a:-----------------2-2-2-2----------------------5-5-5-5-5-*-----------------------
e:-3-3-3-3-5-5-5-5--------------3-3-3-3-5-5-5-5-----------------------------------

any questions, comments, corrections and all send to agilbert41@aol.com cheers dudez
              ÅlL  hÀÏL  þÚñK  & Ît‘§ m!nÏØN§!!!!!!!!!! ©      
Comments