Mxpx - My Life Story Chords & Tabs

 

My Life Story Chords & Tabs

Mxpx Chords & Tabs

Version: 2 Type: Tab 0 ratings
1 star 2 stars 3 stars 4 stars 5 stars
comments

My Life Story Tab

   
Band: MXPX
Song: My Life Story
Tabbed By: Ronny
For Rythem listen to the CD
~=let ring
x=palm mute

Intro 1.a
e --------------------------------------
B --------------------------------------
G --------------------------------------
D -9-11-11-9-11-11-9-11-11-9-11-9-12-12-  
A -0--0--0-0--0--0-0--0--0-0--0-0--0--0-
E --------------------------------------

Intro 1.b (When Drums and Bass come in)
e --------------------------------------
B --------------------------------------
G ----------------------------------7-7-         
D ----------------------------------7-7- 
A ----------------------------------5-5-
E --------------------------------------

Intro 2
e -------------------------------------
B -------------------------------------
G -------------------------------7-7---
D -7-7-7-7-7-7-7-7-7-7-7-7-7-7-7-7-7---
A -7-7-7-7-7-7-7-7-7-7-7-7-7-7-7-5-5---
E -5-5-5-5-5-5-5-5-5-5-5-5-5-5-5-------
[ Tab from: http://www.guitartabs.cc/tabs/m/mxpx/my_life_story_tab_ver_2.html ]
Verse
e ----------------------------------------------------------
B ----------------------------------------------------------
G -----------7-7-----------7----------------------------------
D -7~------7-7-7---7~----7-7--7-7-7-7-7-7-4-4-4-2-2-7-7-7-7-7-7-2-2-
A -7~------7-5-5---7~----7-5--7-7-7-7-7-7-4-4-4-2-2-7-7-7-7-7-7-2-2-
E -5~------5-------5~----5----5-5-5-4-4-4-2-2-2-0-0-5-5-5-5-5-5-0-0-
                              x x x x x x x x x x x         
Chorus
e -----------------------------------------
B -----------------------------------------
G ---------------------------7-7-7---------
D -7-7-7-7-7-7-7-7-7-7-7-7-7-7-7-7-2-2-----
A -7-7-7-7-7-7-7-7-7-7-7-7-7-5-5-5-2-2-----
E -5-5-5-5-5-5-5-5-5-5-5-5-5-------0-0-----

Bridge
e ------------------------
B ------------------------
G ---7-7------------------
D -7-7-7-2-2-7-7-2-2-7-7--
A -7-5-5-2-2-7-7-2-2-7-7--
E -5-----0-0-5-5-0-0-5-5--

Bridge 2.a
e -------------------------------------------------------------------
B -------------------------------------------------------------------
G -------------------9-9-9-9-9-9-9-9---------------------------------
D -7-7-7-7-7-7-7-7-7-9-9-9-9-9-9-9-9-4-4-4-4-4-4-4-4-2-2-2-2-2-2-2-2-
A -7-7-7-7-7-7-7-7-7-7-7-7-7-7-7-7-7-4-4-4-4-4-4-4-4-2-2-2-2-2-2-2-2-
E -5-5-5-5-5-5-5-5-5-----------------2-2-2-2-2-2-2-2-0-0-0-0-0-0-0-0-
   x x x x x x x x x x x x x x x x x x x x x x x x x x x x x x x x x                         
Bridge 2.b
e -------------------------------------------------------------------
B -------------------------------------------------------------------
G --------------------9~---------------------------------------------
D -7~-----------------9~-------------4~---------------2~-------------
A -7~-----------------7~-------------4~---------------2~-------------
E -5~--------------------------------2~---------------0~-------------

End On
e -----
B -----
G -----
D -7~--
A -7~--
E -5~--

Order
Intro 1.A X4
Intro 1.b X2
Intro 2   X2
Verse     X2
Chorus    X2
Intro     X2
Bridge    X4
Bridge 2.aX1
Bridge 2.bX1
Chorus    X4
Intro     X4
End Chord X1
Comments