Mxpx - My Life Story Chords & Tabs

 

My Life Story Chords & Tabs

Mxpx Chords & Tabs

Version: 2 Type: Bass Tab 0 ratings
1 star 2 stars 3 stars 4 stars 5 stars
comments

My Life Story Bass Tab

My Life Story
MxPx( The Ever Passing Moment)
Tabbed by:Dave Parisi

intro: (repeat after choruses and verses)
G|--------------------
D|------00--------00--      X2
A|000000----000000----
E|--------------------

VERSES:   X2
G|--------------------
D|------00--------00--
A|000000----000000----
E|--------------------

G|---------------------
D|77-66-44-22-000000---
A|---------------------
E|-------------------00
[ Tab from: http://www.guitartabs.cc/tabs/m/mxpx/my_life_story_btab_ver_2.html ]
CHORUS:
G|--------------------
D|-------------00-----
A|000000000000--------      X2
E|----------------00--
the extra "My Life Story" after the 2nd chorus
G|--------------------
D|-----00-------------
A|0000----------------      x2
E|--------00----------

bass behind guitar riff
G|--------------------
D|--00---------------
-A|0-------00----------      x4
E|-----00----0--------
"you change your mindlike I change the time" part
G|-----------------------------------
D|------------------44444444---------
A|00000000-44444444------------------      x2
E|---------------------------00000000

G|--------------------
D|00------------------
A|--------------------
E|---00---------------
go to chorus then intro
Comments